  0
SECTION
  2
HEADER
  9
$ACADVER
  1
AC1015
  9
$ACADMAINTVER
 70
     6
  9
$DWGCODEPAGE
  3
ANSI_1252
  9
$INSBASE
 10
0.0
 20
0.0
 30
0.0
  9
$EXTMIN
 10
0.0
 20
0.0
 30
0.0
  9
$EXTMAX
 10
420.0
 20
297.0
 30
0.0
  9
$LIMMIN
 10
0.0
 20
0.0
  9
$LIMMAX
 10
420.0
 20
297.0
  9
$ORTHOMODE
 70
     0
  9
$REGENMODE
 70
     1
  9
$FILLMODE
 70
     1
  9
$QTEXTMODE
 70
     0
  9
$MIRRTEXT
 70
     1
  9
$LTSCALE
 40
1.0
  9
$ATTMODE
 70
     1
  9
$TEXTSIZE
 40
3.5
  9
$TRACEWID
 40
1.0
  9
$TEXTSTYLE
  7
STANDARD
  9
$CLAYER
  8
0
  9
$CELTYPE
  6
ByLayer
  9
$CECOLOR
 62
   256
  9
$CELTSCALE
 40
1.0
  9
$DISPSILH
 70
     0
  9
$DIMSCALE
 40
1.0
  9
$DIMASZ
 40
6.0
  9
$DIMEXO
 40
1.0
  9
$DIMDLI
 40
3.75
  9
$DIMRND
 40
0.0
  9
$DIMDLE
 40
0.0
  9
$DIMEXE
 40
1.0
  9
$DIMTP
 40
0.0
  9
$DIMTM
 40
0.0
  9
$DIMTXT
 40
3.5
  9
$DIMCEN
 40
2.5
  9
$DIMTSZ
 40
0.0
  9
$DIMTOL
 70
     0
  9
$DIMLIM
 70
     0
  9
$DIMTIH
 70
     1
  9
$DIMTOH
 70
     1
  9
$DIMSE1
 70
     0
  9
$DIMSE2
 70
     0
  9
$DIMTAD
 70
     1
  9
$DIMZIN
 70
     0
  9
$DIMBLK
  1

  9
$DIMASO
 70
     1
  9
$DIMSHO
 70
     1
  9
$DIMPOST
  1

  9
$DIMAPOST
  1

  9
$DIMALT
 70
     0
  9
$DIMALTD
 70
     3
  9
$DIMALTF
 40
0.0393700787
  9
$DIMLFAC
 40
1.0
  9
$DIMTOFL
 70
     1
  9
$DIMTVP
 40
0.0
  9
$DIMTIX
 70
     0
  9
$DIMSOXD
 70
     0
  9
$DIMSAH
 70
     0
  9
$DIMBLK1
  1

  9
$DIMBLK2
  1

  9
$DIMSTYLE
  2
ISO-25
  9
$DIMCLRD
 70
     0
  9
$DIMCLRE
 70
     0
  9
$DIMCLRT
 70
     0
  9
$DIMTFAC
 40
1.0
  9
$DIMGAP
 40
1.524
  9
$DIMJUST
 70
     0
  9
$DIMSD1
 70
     0
  9
$DIMSD2
 70
     0
  9
$DIMTOLJ
 70
     0
  9
$DIMTZIN
 70
     0
  9
$DIMALTZ
 70
     0
  9
$DIMALTTZ
 70
     0
  9
$DIMUPT
 70
     0
  9
$DIMDEC
 70
     3
  9
$DIMTDEC
 70
     3
  9
$DIMALTU
 70
     2
  9
$DIMALTTD
 70
     3
  9
$DIMTXSTY
  7
STANDARD
  9
$DIMAUNIT
 70
     0
  9
$DIMADEC
 70
     2
  9
$DIMALTRND
 40
0.0
  9
$DIMAZIN
 70
     0
  9
$DIMDSEP
 70
    44
  9
$DIMATFIT
 70
     3
  9
$DIMFRAC
 70
     0
  9
$DIMLDRBLK
  1

  9
$DIMLUNIT
 70
     2
  9
$DIMLWD
 70
    -2
  9
$DIMLWE
 70
    -2
  9
$DIMTMOVE
 70
     0
  9
$LUNITS
 70
     2
  9
$LUPREC
 70
     2
  9
$SKETCHINC
 40
1.0
  9
$FILLETRAD
 40
10.0
  9
$AUNITS
 70
     0
  9
$AUPREC
 70
     2
  9
$MENU
  1
.
  9
$ELEVATION
 40
0.0
  9
$PELEVATION
 40
0.0
  9
$THICKNESS
 40
0.0
  9
$LIMCHECK
 70
     0
  9
$CHAMFERA
 40
10.0
  9
$CHAMFERB
 40
10.0
  9
$CHAMFERC
 40
20.0
  9
$CHAMFERD
 40
0.0
  9
$SKPOLY
 70
     0
  9
$TDCREATE
 40
2457812.498626285
  9
$TDUCREATE
 40
2457812.081959618
  9
$TDUPDATE
 40
2457812.498626296
  9
$TDUUPDATE
 40
2457812.081959629
  9
$TDINDWG
 40
0.0000000116
  9
$TDUSRTIMER
 40
0.0000000116
  9
$USRTIMER
 70
     1
  9
$ANGBASE
 50
0.0
  9
$ANGDIR
 70
     0
  9
$PDMODE
 70
     0
  9
$PDSIZE
 40
-1.0
  9
$PLINEWID
 40
0.0
  9
$SPLFRAME
 70
     0
  9
$SPLINETYPE
 70
     6
  9
$SPLINESEGS
 70
     8
  9
$HANDSEED
  5
1FC
  9
$SURFTAB1
 70
     6
  9
$SURFTAB2
 70
     6
  9
$SURFTYPE
 70
     6
  9
$SURFU
 70
     6
  9
$SURFV
 70
     6
  9
$UCSBASE
  2

  9
$UCSNAME
  2

  9
$UCSORG
 10
0.0
 20
0.0
 30
0.0
  9
$UCSXDIR
 10
1.0
 20
0.0
 30
0.0
  9
$UCSYDIR
 10
0.0
 20
1.0
 30
0.0
  9
$UCSORTHOREF
  2

  9
$UCSORTHOVIEW
 70
     0
  9
$UCSORGTOP
 10
0.0
 20
0.0
 30
0.0
  9
$UCSORGBOTTOM
 10
0.0
 20
0.0
 30
0.0
  9
$UCSORGLEFT
 10
0.0
 20
0.0
 30
0.0
  9
$UCSORGRIGHT
 10
0.0
 20
0.0
 30
0.0
  9
$UCSORGFRONT
 10
0.0
 20
0.0
 30
0.0
  9
$UCSORGBACK
 10
0.0
 20
0.0
 30
0.0
  9
$PUCSBASE
  2

  9
$PUCSNAME
  2

  9
$PUCSORG
 10
0.0
 20
0.0
 30
0.0
  9
$PUCSXDIR
 10
1.0
 20
0.0
 30
0.0
  9
$PUCSYDIR
 10
0.0
 20
1.0
 30
0.0
  9
$PUCSORTHOREF
  2

  9
$PUCSORTHOVIEW
 70
     0
  9
$PUCSORGTOP
 10
0.0
 20
0.0
 30
0.0
  9
$PUCSORGBOTTOM
 10
0.0
 20
0.0
 30
0.0
  9
$PUCSORGLEFT
 10
0.0
 20
0.0
 30
0.0
  9
$PUCSORGRIGHT
 10
0.0
 20
0.0
 30
0.0
  9
$PUCSORGFRONT
 10
0.0
 20
0.0
 30
0.0
  9
$PUCSORGBACK
 10
0.0
 20
0.0
 30
0.0
  9
$USERI1
 70
     0
  9
$USERI2
 70
     0
  9
$USERI3
 70
     0
  9
$USERI4
 70
     0
  9
$USERI5
 70
     0
  9
$USERR1
 40
0.0
  9
$USERR2
 40
0.0
  9
$USERR3
 40
0.0
  9
$USERR4
 40
0.0
  9
$USERR5
 40
0.0
  9
$WORLDVIEW
 70
     1
  9
$SHADEDGE
 70
     3
  9
$SHADEDIF
 70
    70
  9
$TILEMODE
 70
     1
  9
$MAXACTVP
 70
    64
  9
$PINSBASE
 10
0.0
 20
0.0
 30
0.0
  9
$PLIMCHECK
 70
     0
  9
$PEXTMIN
 10
1.0000000000E+20
 20
1.0000000000E+20
 30
1.0000000000E+20
  9
$PEXTMAX
 10
-1.0000000000E+20
 20
-1.0000000000E+20
 30
-1.0000000000E+20
  9
$PLIMMIN
 10
0.0
 20
0.0
  9
$PLIMMAX
 10
420.0
 20
297.0
  9
$UNITMODE
 70
     0
  9
$VISRETAIN
 70
     1
  9
$PLINEGEN
 70
     0
  9
$PSLTSCALE
 70
     1
  9
$TREEDEPTH
 70
  3020
  9
$CMLSTYLE
  2
Standard
  9
$CMLJUST
 70
     0
  9
$CMLSCALE
 40
20.0
  9
$PROXYGRAPHICS
 70
     1
  9
$MEASUREMENT
 70
     1
  9
$CELWEIGHT
370
    -1
  9
$ENDCAPS
280
     0
  9
$JOINSTYLE
280
     0
  9
$LWDISPLAY
290
     1
  9
$INSUNITS
 70
     4
  9
$HYPERLINKBASE
  1

  9
$STYLESHEET
  1

  9
$XEDIT
290
     1
  9
$CEPSNTYPE
380
     0
  9
$PSTYLEMODE
290
     1
  9
$FINGERPRINTGUID
  2
{6B7E4038-9187-4D0F-B7E9-EF745E9B5C33}
  9
$VERSIONGUID
  2
{FAEB1C32-E019-11D5-929B-00C0DF256EC4}
  9
$EXTNAMES
290
     1
  9
$PSVPSCALE
 40
0.0
  9
$OLESTARTUP
290
     0
  0
ENDSEC
  0
SECTION
  2
CLASSES
  0
CLASS
  1
ACDBDICTIONARYWDFLT
  2
AcDbDictionaryWithDefault
  3
ObjectDBX Classes
 90
        0
280
     0
281
     0
  0
CLASS
  1
VISUALSTYLE
  2
AcDbVisualStyle
  3
ObjectDBX Classes
 90
     4095
280
     0
281
     0
  0
CLASS
  1
DICTIONARYVAR
  2
AcDbDictionaryVar
  3
ObjectDBX Classes
 90
        0
280
     0
281
     0
  0
CLASS
  1
ACDBPLACEHOLDER
  2
AcDbPlaceHolder
  3
ObjectDBX Classes
 90
        0
280
     0
281
     0
  0
CLASS
  1
LAYOUT
  2
AcDbLayout
  3
ObjectDBX Classes
 90
        0
280
     0
281
     0
  0
ENDSEC
  0
SECTION
  2
TABLES
  0
TABLE
  2
VPORT
  5
8
330
0
100
AcDbSymbolTable
 70
     1
  0
VPORT
  5
29
330
8
100
AcDbSymbolTableRecord
100
AcDbViewportTableRecord
  2
*Active
 70
     0
 10
0.0
 20
0.0
 11
1.0
 21
1.0
 12
210.0
 22
148.5
 13
0.0
 23
0.0
 14
10.0
 24
10.0
 15
10.0
 25
10.0
 16
0.0
 26
0.0
 36
1.0
 17
0.0
 27
0.0
 37
0.0
 40
297.0
 41
1.4141414141
 42
50.0
 43
0.0
 44
0.0
 50
0.0
 51
0.0
 71
     0
 72
  2000
 73
     1
 74
     3
 75
     0
 76
     0
 77
     0
 78
     0
281
     0
 65
     1
110
0.0
120
0.0
130
0.0
111
1.0
121
0.0
131
0.0
112
0.0
122
1.0
132
0.0
 79
     0
146
0.0
  0
ENDTAB
  0
TABLE
  2
LTYPE
  5
5
330
0
100
AcDbSymbolTable
 70
     6
  0
LTYPE
  5
14
330
5
100
AcDbSymbolTableRecord
100
AcDbLinetypeTableRecord
  2
ByBlock
 70
     0
  3

 72
    65
 73
     0
 40
0.0
  0
LTYPE
  5
15
330
5
100
AcDbSymbolTableRecord
100
AcDbLinetypeTableRecord
  2
ByLayer
 70
     0
  3

 72
    65
 73
     0
 40
0.0
  0
LTYPE
  5
16
330
5
100
AcDbSymbolTableRecord
100
AcDbLinetypeTableRecord
  2
Continuous
 70
     0
  3
Solid line
 72
    65
 73
     0
 40
0.0
  0
LTYPE
  5
3B
330
5
100
AcDbSymbolTableRecord
100
AcDbLinetypeTableRecord
  2
HIDDEN
 70
     0
  3
Hidden __ __ __ __ __ __ __ __ __ __ __ __ __ __
 72
    65
 73
     2
 40
1.905
 49
1.27
 74
     0
 49
-0.635
 74
     0
  0
LTYPE
  5
3C
330
5
100
AcDbSymbolTableRecord
100
AcDbLinetypeTableRecord
  2
PHANTOM
 70
     0
  3
Phantom ______  __  __  ______  __  __  ______
 72
    65
 73
     6
 40
12.7
 49
6.35
 74
     0
 49
-1.27
 74
     0
 49
1.27
 74
     0
 49
-1.27
 74
     0
 49
1.27
 74
     0
 49
-1.27
 74
     0
  0
LTYPE
  5
3D
330
5
100
AcDbSymbolTableRecord
100
AcDbLinetypeTableRecord
  2
CENTER
 70
     0
  3
Center ____ _ ____ _ ____ _ ____ _ ____ _ ____
 72
    65
 73
     4
 40
10.16
 49
6.35
 74
     0
 49
-1.27
 74
     0
 49
1.27
 74
     0
 49
-1.27
 74
     0
  0
LTYPE
  5
3E
330
5
100
AcDbSymbolTableRecord
100
AcDbLinetypeTableRecord
  2
CENTERX2
 70
     0
  3
Center (2x) ________  __  ________  __  _____
 72
    65
 73
     4
 40
20.32
 49
12.7
 74
     0
 49
-2.54
 74
     0
 49
2.54
 74
     0
 49
-2.54
 74
     0
  0
LTYPE
  5
3F
330
5
100
AcDbSymbolTableRecord
100
AcDbLinetypeTableRecord
  2
DOT2
 70
     0
  3
Dot (.5x) ........................................
 72
    65
 73
     2
 40
0.635
 49
0.0
 74
     0
 49
-0.635
 74
     0
  0
ENDTAB
  0
TABLE
  2
LAYER
  5
2
330
0
100
AcDbSymbolTable
 70
     1
  0
LAYER
  5
10
330
2
100
AcDbSymbolTableRecord
100
AcDbLayerTableRecord
  2
0
 70
     0
 62
     7
  6
Continuous
370
    -3
390
F
  0
ENDTAB
  0
TABLE
  2
STYLE
  5
3
330
0
100
AcDbSymbolTable
 70
     1
  0
STYLE
  5
11
330
3
100
AcDbSymbolTableRecord
100
AcDbTextStyleTableRecord
  2
STANDARD
 70
     0
 40
0.0
 41
1.0
 50
0.0
 71
     0
 42
2.5
  3
GOTHIC.TTF
  4

1001
ACAD
1000
CENTURY GOTHIC
1071
       34
  0
ENDTAB
  0
TABLE
  2
VIEW
  5
6
330
0
100
AcDbSymbolTable
 70
     0
  0
ENDTAB
  0
TABLE
  2
UCS
  5
7
330
0
100
AcDbSymbolTable
 70
     0
  0
ENDTAB
  0
TABLE
  2
APPID
  5
9
330
0
100
AcDbSymbolTable
 70
     1
  0
APPID
  5
12
330
9
100
AcDbSymbolTableRecord
100
AcDbRegAppTableRecord
  2
ACAD
 70
     0
  0
ENDTAB
  0
TABLE
  2
DIMSTYLE
  5
A
330
0
100
AcDbSymbolTable
 70
     1
100
AcDbDimStyleTable
  0
DIMSTYLE
105
27
330
A
100
AcDbSymbolTableRecord
100
AcDbDimStyleTableRecord
  2
ISO-25
 70
     0
 41
2.5
 42
0.625
 43
3.75
 44
1.25
 73
     0
 74
     0
 77
     1
 78
     8
140
2.5
141
2.5
143
0.0393700787
147
0.625
171
     3
172
     1
271
     2
272
     2
274
     3
278
    44
283
     0
284
     8
340
11
  0
ENDTAB
  0
TABLE
  2
BLOCK_RECORD
  5
1
330
0
100
AcDbSymbolTable
 70
     4
  0
BLOCK_RECORD
  5
1F
330
1
100
AcDbSymbolTableRecord
100
AcDbBlockTableRecord
  2
*Model_Space
340
22
  0
BLOCK_RECORD
  5
1B
330
1
100
AcDbSymbolTableRecord
100
AcDbBlockTableRecord
  2
*Paper_Space
340
1E
  0
BLOCK_RECORD
  5
23
330
1
100
AcDbSymbolTableRecord
100
AcDbBlockTableRecord
  2
*Paper_Space0
340
26
  0
BLOCK_RECORD
  5
1D1
330
1
100
AcDbSymbolTableRecord
100
AcDbBlockTableRecord
  2
SW_CENTERMARKSYMBOL_0
340
0
102
{BLKREFS
331
1DC
102
}
  0
BLOCK_RECORD
  5
1DD
330
1
100
AcDbSymbolTableRecord
100
AcDbBlockTableRecord
  2
SW_CENTERMARKSYMBOL_1
340
0
102
{BLKREFS
331
1E8
102
}
  0
BLOCK_RECORD
  5
1E9
330
1
100
AcDbSymbolTableRecord
100
AcDbBlockTableRecord
  2
SW_CENTERMARKSYMBOL_2
340
0
102
{BLKREFS
331
1F4
102
}
  0
ENDTAB
  0
ENDSEC
  0
SECTION
  2
BLOCKS
  0
BLOCK
  5
20
330
1F
100
AcDbEntity
  8
0
100
AcDbBlockBegin
  2
*Model_Space
 70
     0
 10
0.0
 20
0.0
 30
0.0
  3
*Model_Space
  1

  0
ENDBLK
  5
21
330
1F
100
AcDbEntity
  8
0
100
AcDbBlockEnd
  0
BLOCK
  5
1C
330
1B
100
AcDbEntity
 67
     1
  8
0
100
AcDbBlockBegin
  2
*Paper_Space
 70
     0
 10
0.0
 20
0.0
 30
0.0
  3
*Paper_Space
  1

  0
ENDBLK
  5
1D
330
1B
100
AcDbEntity
 67
     1
  8
0
100
AcDbBlockEnd
  0
BLOCK
  5
24
330
23
100
AcDbEntity
  8
0
100
AcDbBlockBegin
  2
*Paper_Space0
 70
     0
 10
0.0
 20
0.0
 30
0.0
  3
*Paper_Space0
  1

  0
ENDBLK
  5
25
330
23
100
AcDbEntity
  8
0
100
AcDbBlockEnd
  0
BLOCK
  5
1D2
330
1D1
100
AcDbEntity
  8
0
100
AcDbBlockBegin
  2
SW_CENTERMARKSYMBOL_0
 70
     0
 10
0.0
 20
0.0
 30
0.0
  3
SW_CENTERMARKSYMBOL_0
  1

  0
LINE
  5
1D4
330
1D1
100
AcDbEntity
  8
0
  6
Continuous
 62
     0
370
     0
100
AcDbLine
 10
0.0
 20
0.0
 30
0.0
 11
0.0
 21
2.5
 31
0.0
  0
LINE
  5
1D5
330
1D1
100
AcDbEntity
  8
0
  6
Continuous
 62
     0
370
     0
100
AcDbLine
 10
0.0
 20
0.0
 30
0.0
 11
-2.5
 21
0.0
 31
0.0
  0
LINE
  5
1D6
330
1D1
100
AcDbEntity
  8
0
  6
Continuous
 62
     0
370
     0
100
AcDbLine
 10
0.0
 20
0.0
 30
0.0
 11
0.0
 21
-2.5
 31
0.0
  0
LINE
  5
1D7
330
1D1
100
AcDbEntity
  8
0
  6
Continuous
 62
     0
370
     0
100
AcDbLine
 10
0.0
 20
0.0
 30
0.0
 11
2.5
 21
0.0
 31
0.0
  0
LINE
  5
1D8
330
1D1
100
AcDbEntity
  8
0
  6
Continuous
 62
     0
370
     0
100
AcDbLine
 10
0.0
 20
2.5
 30
0.0
 11
0.0
 21
4.5889072728
 31
0.0
  0
LINE
  5
1D9
330
1D1
100
AcDbEntity
  8
0
  6
Continuous
 62
     0
370
     0
100
AcDbLine
 10
-2.5
 20
0.0
 30
0.0
 11
-4.5889072728
 21
0.0
 31
0.0
  0
LINE
  5
1DA
330
1D1
100
AcDbEntity
  8
0
  6
Continuous
 62
     0
370
     0
100
AcDbLine
 10
0.0
 20
-2.5
 30
0.0
 11
0.0
 21
-4.5889072728
 31
0.0
  0
LINE
  5
1DB
330
1D1
100
AcDbEntity
  8
0
  6
Continuous
 62
     0
370
     0
100
AcDbLine
 10
2.5
 20
0.0
 30
0.0
 11
4.5889072728
 21
0.0
 31
0.0
  0
ENDBLK
  5
1D3
330
1D1
100
AcDbEntity
  8
0
100
AcDbBlockEnd
  0
BLOCK
  5
1DE
330
1DD
100
AcDbEntity
  8
0
100
AcDbBlockBegin
  2
SW_CENTERMARKSYMBOL_1
 70
     0
 10
0.0
 20
0.0
 30
0.0
  3
SW_CENTERMARKSYMBOL_1
  1

  0
LINE
  5
1E0
330
1DD
100
AcDbEntity
  8
0
  6
Continuous
 62
     0
370
     0
100
AcDbLine
 10
0.0
 20
0.0
 30
0.0
 11
0.0
 21
2.5
 31
0.0
  0
LINE
  5
1E1
330
1DD
100
AcDbEntity
  8
0
  6
Continuous
 62
     0
370
     0
100
AcDbLine
 10
0.0
 20
0.0
 30
0.0
 11
-2.5
 21
0.0
 31
0.0
  0
LINE
  5
1E2
330
1DD
100
AcDbEntity
  8
0
  6
Continuous
 62
     0
370
     0
100
AcDbLine
 10
0.0
 20
0.0
 30
0.0
 11
0.0
 21
-2.5
 31
0.0
  0
LINE
  5
1E3
330
1DD
100
AcDbEntity
  8
0
  6
Continuous
 62
     0
370
     0
100
AcDbLine
 10
0.0
 20
0.0
 30
0.0
 11
2.5
 21
0.0
 31
0.0
  0
LINE
  5
1E4
330
1DD
100
AcDbEntity
  8
0
  6
Continuous
 62
     0
370
     0
100
AcDbLine
 10
0.0
 20
2.5
 30
0.0
 11
0.0
 21
4.5889072728
 31
0.0
  0
LINE
  5
1E5
330
1DD
100
AcDbEntity
  8
0
  6
Continuous
 62
     0
370
     0
100
AcDbLine
 10
-2.5
 20
0.0
 30
0.0
 11
-4.5889072728
 21
0.0
 31
0.0
  0
LINE
  5
1E6
330
1DD
100
AcDbEntity
  8
0
  6
Continuous
 62
     0
370
     0
100
AcDbLine
 10
0.0
 20
-2.5
 30
0.0
 11
0.0
 21
-4.5889072728
 31
0.0
  0
LINE
  5
1E7
330
1DD
100
AcDbEntity
  8
0
  6
Continuous
 62
     0
370
     0
100
AcDbLine
 10
2.5
 20
0.0
 30
0.0
 11
4.5889072728
 21
0.0
 31
0.0
  0
ENDBLK
  5
1DF
330
1DD
100
AcDbEntity
  8
0
100
AcDbBlockEnd
  0
BLOCK
  5
1EA
330
1E9
100
AcDbEntity
  8
0
100
AcDbBlockBegin
  2
SW_CENTERMARKSYMBOL_2
 70
     0
 10
0.0
 20
0.0
 30
0.0
  3
SW_CENTERMARKSYMBOL_2
  1

  0
LINE
  5
1EC
330
1E9
100
AcDbEntity
  8
0
  6
Continuous
 62
     0
370
     0
100
AcDbLine
 10
0.0
 20
0.0
 30
0.0
 11
0.0
 21
2.5
 31
0.0
  0
LINE
  5
1ED
330
1E9
100
AcDbEntity
  8
0
  6
Continuous
 62
     0
370
     0
100
AcDbLine
 10
0.0
 20
0.0
 30
0.0
 11
-2.5
 21
0.0
 31
0.0
  0
LINE
  5
1EE
330
1E9
100
AcDbEntity
  8
0
  6
Continuous
 62
     0
370
     0
100
AcDbLine
 10
0.0
 20
0.0
 30
0.0
 11
0.0
 21
-2.5
 31
0.0
  0
LINE
  5
1EF
330
1E9
100
AcDbEntity
  8
0
  6
Continuous
 62
     0
370
     0
100
AcDbLine
 10
0.0
 20
0.0
 30
0.0
 11
2.5
 21
0.0
 31
0.0
  0
LINE
  5
1F0
330
1E9
100
AcDbEntity
  8
0
  6
Continuous
 62
     0
370
     0
100
AcDbLine
 10
0.0
 20
2.5
 30
0.0
 11
0.0
 21
4.5889072728
 31
0.0
  0
LINE
  5
1F1
330
1E9
100
AcDbEntity
  8
0
  6
Continuous
 62
     0
370
     0
100
AcDbLine
 10
-2.5
 20
0.0
 30
0.0
 11
-4.5889072728
 21
0.0
 31
0.0
  0
LINE
  5
1F2
330
1E9
100
AcDbEntity
  8
0
  6
Continuous
 62
     0
370
     0
100
AcDbLine
 10
0.0
 20
-2.5
 30
0.0
 11
0.0
 21
-4.5889072728
 31
0.0
  0
LINE
  5
1F3
330
1E9
100
AcDbEntity
  8
0
  6
Continuous
 62
     0
370
     0
100
AcDbLine
 10
2.5
 20
0.0
 30
0.0
 11
4.5889072728
 21
0.0
 31
0.0
  0
ENDBLK
  5
1EB
330
1E9
100
AcDbEntity
  8
0
100
AcDbBlockEnd
  0
ENDSEC
  0
SECTION
  2
ENTITIES
  0
SPLINE
  5
40
330
1F
100
AcDbEntity
  8
0
  6
Continuous
 62
     7
370
    15
100
AcDbSpline
210
0.0
220
0.0
230
1.0
 70
     8
 71
     3
 72
    10
 73
     6
 74
     0
 42
0.00000001
 43
0.00000001
 40
0.0
 40
0.0
 40
0.0
 40
0.0
 40
0.1424937717148686
 40
0.8326288088130125
 40
1.0
 40
1.0
 40
1.0
 40
1.0
 10
197.7721760372193
 20
144.6991416082961
 30
0.0
 10
197.7661848751673
 20
144.6794882070317
 30
0.0
 10
197.7311769301693
 20
144.5646481835911
 30
0.0
 10
197.7011575434768
 20
144.4198124025706
 30
0.0
 10
197.6849741328193
 20
144.2949335994498
 30
0.0
 10
197.6818153957398
 20
144.2705592994822
 30
0.0
  0
SPLINE
  5
41
330
1F
100
AcDbEntity
  8
0
  6
Continuous
 62
     7
370
    15
100
AcDbSpline
210
0.0
220
0.0
230
1.0
 70
     8
 71
     3
 72
    10
 73
     6
 74
     0
 42
0.00000001
 43
0.00000001
 40
0.0
 40
0.0
 40
0.0
 40
0.0
 40
0.1424934882568756
 40
0.832628271629821
 40
1.0
 40
1.0
 40
1.0
 40
1.0
 10
212.7870852450402
 20
163.3860003126097
 30
0.0
 10
212.7670693537321
 20
163.3813620489315
 30
0.0
 10
212.6501110478558
 20
163.35425941065
 30
0.0
 10
212.5096689264908
 20
163.3078412820942
 30
0.0
 10
212.3934293440524
 20
163.259415779999
 30
0.0
 10
212.3707412133486
 20
163.2499638867808
 30
0.0
  0
SPLINE
  5
42
330
1F
100
AcDbEntity
  8
0
  6
Continuous
 62
     7
370
    15
100
AcDbSpline
210
0.0
220
0.0
230
1.0
 70
     8
 71
     3
 72
    10
 73
     6
 74
     0
 42
0.00000001
 43
0.00000001
 40
0.0
 40
0.0
 40
0.0
 40
0.0
 40
0.1424919395280585
 40
0.8326271286280442
 40
1.0
 40
1.0
 40
1.0
 40
1.0
 10
206.4480157891781
 20
122.3524194133711
 30
0.0
 10
206.4620405525899
 20
122.33740459174
 30
0.0
 10
206.5439918442061
 20
122.2496680652882
 30
0.0
 10
206.6544118871603
 20
122.1512506507497
 30
0.0
 10
206.7544694292912
 20
122.0747968736743
 30
0.0
 10
206.7739991793902
 20
122.0598742288781
 30
0.0
  0
SPLINE
  5
43
330
1F
100
AcDbEntity
  8
0
  6
Continuous
 62
     7
370
    15
100
AcDbSpline
210
0.0
220
0.0
230
1.0
 70
     8
 71
     3
 72
    11
 73
     7
 74
     0
 42
0.00000001
 43
0.00000001
 40
0.0
 40
0.0
 40
0.0
 40
0.0
 40
0.0871648591001518
 40
0.4956824624650741
 40
0.9312827968117565
 40
1.0
 40
1.0
 40
1.0
 40
1.0
 10
212.808070736614
 20
188.2512979132367
 30
0.0
 10
212.7852849131548
 20
188.2474240688947
 30
0.0
 10
212.6557082328488
 20
188.2253945868024
 30
0.0
 10
212.4185009033389
 20
188.1590249719887
 30
0.0
 10
212.1925520433708
 20
188.0839633421639
 30
0.0
 10
212.0787369404263
 20
188.0293803274739
 30
0.0
 10
212.0632287437589
 20
188.0219429654313
 30
0.0
  0
SPLINE
  5
44
330
1F
100
AcDbEntity
  8
0
  6
Continuous
 62
     7
370
    15
100
AcDbSpline
210
0.0
220
0.0
230
1.0
 70
     8
 71
     3
 72
    11
 73
     7
 74
     0
 42
0.00000001
 43
0.00000001
 40
0.0
 40
0.0
 40
0.0
 40
0.0
 40
0.0871639719227697
 40
0.4956807822427582
 40
0.9312812604509657
 40
1.0
 40
1.0
 40
1.0
 40
1.0
 10
176.2486892143757
 20
157.1499630731774
 30
0.0
 10
176.2406508030397
 20
157.1282934552128
 30
0.0
 10
176.1949382691665
 20
157.0050634905077
 30
0.0
 10
176.1338122888605
 20
156.7664511839298
 30
0.0
 10
176.0858485900142
 20
156.5332429122114
 30
0.0
 10
176.0762070114558
 20
156.407384357588
 30
0.0
 10
176.0748932460816
 20
156.3902348202897
 30
0.0
  0
SPLINE
  5
45
330
1F
100
AcDbEntity
  8
0
  6
Continuous
 62
     7
370
    15
100
AcDbSpline
210
0.0
220
0.0
230
1.0
 70
     8
 71
     3
 72
    11
 73
     7
 74
     0
 42
0.00000001
 43
0.00000001
 40
0.0
 40
0.0
 40
0.0
 40
0.0
 40
0.0871648425753543
 40
0.4956807682320587
 40
0.9312839874955762
 40
1.0
 40
1.0
 40
1.0
 40
1.0
 10
184.9035444060833
 20
109.9379453731013
 30
0.0
 10
184.9182918100765
 20
109.9201489395696
 30
0.0
 10
185.0021559498461
 20
109.8189458675037
 30
0.0
 10
185.1782392460348
 20
109.6467050112682
 30
0.0
 10
185.3562175488174
 20
109.4885565637269
 30
0.0
 10
185.4603956450545
 20
109.4172817539546
 30
0.0
 10
185.4745904306443
 20
109.4075702053738
 30
0.0
  0
SPLINE
  5
46
330
1F
100
AcDbEntity
  8
0
  6
Continuous
 62
     7
370
    15
100
AcDbSpline
210
0.0
220
0.0
230
1.0
 70
     8
 71
     3
 72
    10
 73
     6
 74
     0
 42
0.00000001
 43
0.00000001
 40
0.0
 40
0.0
 40
0.0
 40
0.0
 40
0.4707215719896342
 40
0.8913516054189686
 40
1.0
 40
1.0
 40
1.0
 40
1.0
 10
185.4734095136197
 20
172.6714447063637
 30
0.0
 10
185.3790005150079
 20
172.5974237090627
 30
0.0
 10
185.2002289916999
 20
172.457258612103
 30
0.0
 10
185.0118077383641
 20
172.2701804482338
 30
0.0
 10
184.9221841596566
 20
172.1625305105929
 30
0.0
 10
184.9037865499527
 20
172.1404325139952
 30
0.0
  0
SPLINE
  5
47
330
1F
100
AcDbEntity
  8
0
  6
Continuous
 62
     7
370
    15
100
AcDbSpline
210
0.0
220
0.0
230
1.0
 70
     8
 71
     3
 72
    10
 73
     6
 74
     0
 42
0.00000001
 43
0.00000001
 40
0.0
 40
0.0
 40
0.0
 40
0.0
 40
0.4707234966226815
 40
0.8913527170988725
 40
1.0
 40
1.0
 40
1.0
 40
1.0
 10
176.0739060441525
 20
125.687527462585
 30
0.0
 10
176.0908052926647
 20
125.5687556722417
 30
0.0
 10
176.1228053759118
 20
125.343851755618
 30
0.0
 10
176.1906094978064
 20
125.0871348500676
 30
0.0
 10
176.2390261525941
 20
124.9556943067577
 30
0.0
 10
176.2489648858578
 20
124.928712837143
 30
0.0
  0
SPLINE
  5
48
330
1F
100
AcDbEntity
  8
0
  6
Continuous
 62
     7
370
    15
100
AcDbSpline
210
0.0
220
0.0
230
1.0
 70
     8
 71
     3
 72
    10
 73
     6
 74
     0
 42
0.00000001
 43
0.00000001
 40
0.0
 40
0.0
 40
0.0
 40
0.0
 40
0.4707253778703784
 40
0.891353538381385
 40
0.9999999999999999
 40
0.9999999999999999
 40
0.9999999999999999
 40
0.9999999999999999
 10
212.0634215275319
 20
94.05536203805929
 30
0.0
 10
212.1747305701893
 20
94.01060943481707
 30
0.0
 10
212.3855025270262
 20
93.92586704970881
 30
0.0
 10
212.6417294103142
 20
93.85623441924443
 30
0.0
 10
212.7797676367568
 20
93.8324409898622
 30
0.0
 10
212.8081033329041
 20
93.82755681101804
 30
0.0
  0
SPLINE
  5
49
330
1F
100
AcDbEntity
  8
0
  6
Continuous
 62
     7
370
    15
100
AcDbSpline
210
0.0
220
0.0
230
1.0
 70
     8
 71
     3
 72
     9
 73
     5
 74
     0
 42
0.00000001
 43
0.00000001
 40
0.0
 40
0.0
 40
0.0
 40
0.0
 40
0.3776805719137342
 40
1.0
 40
1.0
 40
1.0
 40
1.0
 10
197.6919221083195
 20
137.7648753036988
 30
0.0
 10
197.6976312954057
 20
137.7151979446261
 30
0.0
 10
197.712747739064
 20
137.5836652083221
 30
0.0
 10
197.7506860065035
 20
137.458850710577
 30
0.0
 10
197.7742957273991
 20
137.3811762237233
 30
0.0
  0
SPLINE
  5
4A
330
1F
100
AcDbEntity
  8
0
  6
Continuous
 62
     7
370
    15
100
AcDbSpline
210
0.0
220
0.0
230
1.0
 70
     8
 71
     3
 72
     9
 73
     5
 74
     0
 42
0.00000001
 43
0.00000001
 40
0.0
 40
0.0
 40
0.0
 40
0.0
 40
0.3776809340622385
 40
1.0
 40
1.0
 40
1.0
 40
1.0
 10
212.413139673558
 20
118.8157834035588
 30
0.0
 10
212.459016523811
 20
118.7958900839023
 30
0.0
 10
212.5804863839905
 20
118.7432177939817
 30
0.0
 10
212.7075472095028
 20
118.7136640089466
 30
0.0
 10
212.7866195837529
 20
118.6952721250487
 30
0.0
  0
SPLINE
  5
4B
330
1F
100
AcDbEntity
  8
0
  6
Continuous
 62
     7
370
    15
100
AcDbSpline
210
0.0
220
0.0
230
1.0
 70
     8
 71
     3
 72
     9
 73
     5
 74
     0
 42
0.00000001
 43
0.00000001
 40
0.0
 40
0.0
 40
0.0
 40
0.0
 40
0.3776826139130099
 40
1.0
 40
1.0
 40
1.0
 40
1.0
 10
206.7417074317605
 20
159.9883697849942
 30
0.0
 10
206.701540212156
 20
159.9585862229726
 30
0.0
 10
206.5951884286086
 20
159.8797275174765
 30
0.0
 10
206.5060645067402
 20
159.784465167394
 30
0.0
 10
206.4506011406453
 20
159.7251817506981
 30
0.0
  0
ARC
  5
4C
330
1F
100
AcDbEntity
  8
0
  6
Continuous
 62
     7
370
    15
100
AcDbCircle
 10
221.2129225502
 20
93.289934768
 30
0.0
 40
0.2500024468471126
100
AcDbArc
 50
270.1821368909
 51
359.9998448377
  0
ARC
  5
4D
330
1F
100
AcDbEntity
  8
0
  6
Continuous
 62
     7
370
    15
100
AcDbCircle
 10
221.462924997
 20
141.0392783505
 30
0.0
 40
48.00000000000001
100
AcDbArc
 50
259.6118946125
 51
269.6997789996
  0
ARC
  5
4E
330
1F
100
AcDbEntity
  8
0
  6
Continuous
 62
     7
370
    15
100
AcDbCircle
 10
221.462924997
 20
141.0392783505
 30
0.0
 40
48.0
100
AcDbArc
 50
90.3000868366
 51
100.3881053875
  0
ARC
  5
4F
330
1F
100
AcDbEntity
  8
0
  6
Continuous
 62
     7
370
    15
100
AcDbCircle
 10
221.2129252646
 20
188.7886235859
 30
0.0
 40
0.2499997322721361
100
AcDbArc
 50
359.9861159609
 51
90.7696182111
  0
ARC
  5
50
330
1F
100
AcDbEntity
  8
0
  6
Continuous
 62
     7
370
    15
100
AcDbCircle
 10
175.6864815936
 20
130.3848318919
 30
0.0
 40
2.026411089458184
100
AcDbArc
 50
335.0
 51
13.1022967661
  0
ARC
  5
51
330
1F
100
AcDbEntity
  8
0
  6
Continuous
 62
     7
370
    15
100
AcDbCircle
 10
207.8017245917
 20
96.068492239
 30
0.0
 40
2.0264110894582
100
AcDbArc
 50
35.0
 51
73.1022967661
  0
ARC
  5
52
330
1F
100
AcDbEntity
  8
0
  6
Continuous
 62
     7
370
    15
100
AcDbCircle
 10
221.462924997
 20
141.0392783505
 30
0.0
 40
44.97358891054183
100
AcDbArc
 50
226.8977032339
 51
253.1022967661
  0
ARC
  5
53
330
1F
100
AcDbEntity
  8
0
  6
Continuous
 62
     7
370
    15
100
AcDbCircle
 10
189.3476819989
 20
106.7229386976
 30
0.0
 40
2.026411089458199
100
AcDbArc
 50
46.8977032339
 51
85.0
  0
ARC
  5
54
330
1F
100
AcDbEntity
  8
0
  6
Continuous
 62
     7
370
    15
100
AcDbCircle
 10
221.462924997
 20
141.0392783505
 30
0.0
 40
48.00000000000001
100
AcDbArc
 50
139.6118946125
 51
160.3881053875
  0
ARC
  5
55
330
1F
100
AcDbEntity
  8
0
  6
Continuous
 62
     7
370
    15
100
AcDbCircle
 10
221.462924997
 20
141.0392783505
 30
0.0
 40
44.97358891054184
100
AcDbArc
 50
106.8977032339
 51
133.1022967661
  0
ARC
  5
56
330
1F
100
AcDbEntity
  8
0
  6
Continuous
 62
     7
370
    15
100
AcDbCircle
 10
207.8017245917
 20
186.010064462
 30
0.0
 40
2.026411089458178
100
AcDbArc
 50
286.8977032339
 51
325.0
  0
ARC
  5
57
330
1F
100
AcDbEntity
  8
0
  6
Continuous
 62
     7
370
    15
100
AcDbCircle
 10
189.3476819989
 20
175.3556180034
 30
0.0
 40
2.026411089458222
100
AcDbArc
 50
275.0
 51
313.1022967661
  0
ARC
  5
58
330
1F
100
AcDbEntity
  8
0
  6
Continuous
 62
     7
370
    15
100
AcDbCircle
 10
221.462924997
 20
141.0392783505
 30
0.0
 40
48.0
100
AcDbArc
 50
199.6118946125
 51
220.3881053875
  0
ARC
  5
59
330
1F
100
AcDbEntity
  8
0
  6
Continuous
 62
     7
370
    15
100
AcDbCircle
 10
175.6864815936
 20
151.6937248091
 30
0.0
 40
2.026411089458173
100
AcDbArc
 50
346.8977032339
 51
25.0
  0
ARC
  5
5A
330
1F
100
AcDbEntity
  8
0
  6
Continuous
 62
     7
370
    15
100
AcDbCircle
 10
221.462924997
 20
141.0392783505
 30
0.0
 40
24.0
100
AcDbArc
 50
172.1569905902
 51
187.8430094098
  0
ARC
  5
5B
330
1F
100
AcDbEntity
  8
0
  6
Continuous
 62
     7
370
    15
100
AcDbCircle
 10
221.462924997
 20
141.0392783505
 30
0.0
 40
24.0
100
AcDbArc
 50
232.1569905902
 51
247.8430094098
  0
ARC
  5
5C
330
1F
100
AcDbEntity
  8
0
  6
Continuous
 62
     7
370
    15
100
AcDbCircle
 10
221.462924997
 20
141.0392783505
 30
0.0
 40
23.99999999999999
100
AcDbArc
 50
112.1569905902
 51
127.8430094098
  0
SPLINE
  5
5D
330
1F
100
AcDbEntity
  8
0
  6
Continuous
 62
     7
370
    15
100
AcDbSpline
210
0.0
220
0.0
230
1.0
 70
     8
 71
     3
 72
    13
 73
     9
 74
     0
 42
0.00000001
 43
0.00000001
 40
0.0
 40
0.0
 40
0.0
 40
0.0
 40
0.1351167708736297
 40
0.3186743295145576
 40
0.5071309183721645
 40
0.7278752202172012
 40
0.9665103449445618
 40
1.0
 40
1.0
 40
1.0
 40
1.0
 10
212.7878889764221
 20
118.6949070465994
 30
0.0
 10
212.8521936985704
 20
118.6809055636937
 30
0.0
 10
213.0038570641373
 20
118.6478829185525
 30
0.0
 10
213.2502230205671
 20
118.6450269676919
 30
0.0
 10
213.5318118985689
 20
118.6761435375966
 30
0.0
 10
213.8280197631995
 20
118.7555383372876
 30
0.0
 10
214.0445424117495
 20
118.8368162484187
 30
0.0
 10
214.1543851618064
 20
118.8988372520426
 30
0.0
 10
214.1679032097132
 20
118.9064700079394
 30
0.0
  0
SPLINE
  5
5E
330
1F
100
AcDbEntity
  8
0
  6
Continuous
 62
     7
370
    15
100
AcDbSpline
210
0.0
220
0.0
230
1.0
 70
     8
 71
     3
 72
    13
 73
     9
 74
     0
 42
0.00000001
 43
0.00000001
 40
0.0
 40
0.0
 40
0.0
 40
0.0
 40
0.1351167571999085
 40
0.3186746158621957
 40
0.5071311712804222
 40
0.7278752752763378
 40
0.9665113528022995
 40
1.0
 40
1.0
 40
1.0
 40
1.0
 10
197.7746142397196
 20
137.37989449103
 30
0.0
 10
197.7946405071926
 20
137.317204088944
 30
0.0
 10
197.8418727175147
 20
137.1693479664538
 30
0.0
 10
197.9625852213315
 20
136.9545621598451
 30
0.0
 10
198.1303263450547
 20
136.7262571847817
 30
0.0
 10
198.3471854715902
 20
136.509427325203
 30
0.0
 10
198.5258411693688
 20
136.3625598896041
 30
0.0
 10
198.6344707078438
 20
136.2984388603622
 30
0.0
 10
198.6478390494854
 20
136.2905478959215
 30
0.0
  0
SPLINE
  5
5F
330
1F
100
AcDbEntity
  8
0
  6
Continuous
 62
     7
370
    15
100
AcDbSpline
210
0.0
220
0.0
230
1.0
 70
     8
 71
     3
 72
    13
 73
     9
 74
     0
 42
0.00000001
 43
0.00000001
 40
0.0
 40
0.0
 40
0.0
 40
0.0
 40
0.1351167314825057
 40
0.3186745010731666
 40
0.5071305860961617
 40
0.7278748687038379
 40
0.9665112081020383
 40
1.0
 40
1.0
 40
1.0
 40
1.0
 10
206.4496502602966
 20
159.7242653292847
 30
0.0
 10
206.4053723051732
 20
159.6755765544672
 30
0.0
 10
206.3009421942414
 20
159.5607434701217
 30
0.0
 10
206.1752855558487
 20
159.3488125446922
 30
0.0
 10
206.0614401850448
 20
159.0893911028905
 30
0.0
 10
205.9820889419022
 20
158.7931708575716
 30
0.0
 10
205.944225837649
 20
158.5650163463535
 30
0.0
 10
205.9430104118621
 20
158.4388795907741
 30
0.0
 10
205.9428608367712
 20
158.4233567041588
 30
0.0
  0
SPLINE
  5
60
330
1F
100
AcDbEntity
  8
0
  6
Continuous
 62
     7
370
    15
100
AcDbSpline
210
0.0
220
0.0
230
1.0
 70
     8
 71
     3
 72
    13
 73
     9
 74
     0
 42
0.00000001
 43
0.00000001
 40
0.0
 40
0.0
 40
0.0
 40
0.0
 40
0.0279782061234876
 40
0.2876993458158571
 40
0.5277290500602669
 40
0.7365048925709894
 40
0.9339178950613187
 40
0.9999999999999999
 40
0.9999999999999999
 40
0.9999999999999999
 40
0.9999999999999999
 10
198.6479042420657
 20
145.7884753977192
 30
0.0
 10
198.6367285586344
 20
145.781883658149
 30
0.0
 10
198.5218092247059
 20
145.7141009292
 30
0.0
 10
198.3307729875898
 20
145.5559834495189
 30
0.0
 10
198.0963317171446
 20
145.3148170712346
 30
0.0
 10
197.922369066748
 20
145.05854090256
 30
0.0
 10
197.8155794827185
 20
144.8534811931819
 30
0.0
 10
197.7846492639092
 20
144.7286823505752
 30
0.0
 10
197.7768922547371
 20
144.6973839697671
 30
0.0
  0
SPLINE
  5
61
330
1F
100
AcDbEntity
  8
0
  6
Continuous
 62
     7
370
    15
100
AcDbSpline
210
0.0
220
0.0
230
1.0
 70
     8
 71
     3
 72
    13
 73
     9
 74
     0
 42
0.00000001
 43
0.00000001
 40
0.0
 40
0.0
 40
0.0
 40
0.0
 40
0.0279779665215133
 40
0.2876992276415917
 40
0.527728833723516
 40
0.7365045181795448
 40
0.9339177016647225
 40
1.0
 40
1.0
 40
1.0
 40
1.0
 10
214.1683400000007
 20
163.1722655070258
 30
0.0
 10
214.1570434382305
 20
163.1786476040537
 30
0.0
 10
214.0408801676154
 20
163.2442751179136
 30
0.0
 10
213.808431291041
 20
163.3306642231338
 30
0.0
 10
213.4823535600818
 20
163.4131105755966
 30
0.0
 10
213.1734307345002
 20
163.4356278155691
 30
0.0
 10
212.9424494025565
 20
163.4255799033009
 30
0.0
 10
212.8189045738986
 20
163.389969096244
 30
0.0
 10
212.7879206413896
 20
163.3810382259322
 30
0.0
  0
SPLINE
  5
62
330
1F
100
AcDbEntity
  8
0
  6
Continuous
 62
     7
370
    15
100
AcDbSpline
210
0.0
220
0.0
230
1.0
 70
     8
 71
     3
 72
    13
 73
     9
 74
     0
 42
0.00000001
 43
0.00000001
 40
0.0
 40
0.0
 40
0.0
 40
0.0
 40
0.0279782907580682
 40
0.2876988448840809
 40
0.5277286825290272
 40
0.7365048656989408
 40
0.9339179228852277
 40
1.0
 40
1.0
 40
1.0
 40
1.0
 10
205.942489239064
 20
123.6554887068701
 30
0.0
 10
205.9426101093115
 20
123.642514380396
 30
0.0
 10
205.9438530097759
 20
123.509100271148
 30
0.0
 10
205.9852678109065
 20
123.2645998722432
 30
0.0
 10
206.0769042469871
 20
122.9409850650371
 30
0.0
 10
206.2118639733563
 20
122.6621906852888
 30
0.0
 10
206.3360555443337
 20
122.4671779931068
 30
0.0
 10
206.4286690831052
 20
122.3779920205409
 30
0.0
 10
206.451895679024
 20
122.355625025673
 30
0.0
  0
SPLINE
  5
63
330
1F
100
AcDbEntity
  8
0
  6
Continuous
 62
     7
370
    15
100
AcDbSpline
210
0.0
220
0.0
230
1.0
 70
     8
 71
     3
 72
    12
 73
     8
 74
     0
 42
0.00000001
 43
0.00000001
 40
0.0
 40
0.0
 40
0.0
 40
0.0
 40
0.0481676064655309
 40
0.2636839911728528
 40
0.502309389378955
 40
0.7662989472653626
 40
1.0
 40
1.0
 40
1.0
 40
1.0
 10
185.4748959044487
 20
109.409045420332
 30
0.0
 10
185.4912832960783
 20
109.3958596534499
 30
0.0
 10
185.5809928155429
 20
109.323676792534
 30
0.0
 10
185.7736062701675
 20
109.2205343588297
 30
0.0
 10
186.0574589257546
 20
109.1043154425969
 30
0.0
 10
186.3599672871789
 20
109.025404529493
 30
0.0
 10
186.5682932580277
 20
109.0025489488876
 30
0.0
 10
186.6661170820267
 20
108.9918166321946
 30
0.0
  0
SPLINE
  5
64
330
1F
100
AcDbEntity
  8
0
  6
Continuous
 62
     7
370
    15
100
AcDbSpline
210
0.0
220
0.0
230
1.0
 70
     8
 71
     3
 72
    12
 73
     8
 74
     0
 42
0.00000001
 43
0.00000001
 40
0.0
 40
0.0
 40
0.0
 40
0.0
 40
0.0481690387501333
 40
0.2636844070346206
 40
0.5023087104583092
 40
0.7662983115521406
 40
0.9999999999999999
 40
0.9999999999999999
 40
0.9999999999999999
 40
0.9999999999999999
 10
176.0763274828465
 20
156.3907097948027
 30
0.0
 10
176.0731012943454
 20
156.369924424671
 30
0.0
 10
176.0554406637008
 20
156.256142249639
 30
0.0
 10
176.0624302074699
 20
156.0377628041061
 30
0.0
 10
176.1037029735559
 20
155.7338302596217
 30
0.0
 10
176.1866189141512
 20
155.4323944570528
 30
0.0
 10
176.270989319383
 20
155.2405508825266
 30
0.0
 10
176.3106072644265
 20
155.1504665908647
 30
0.0
  0
SPLINE
  5
65
330
1F
100
AcDbEntity
  8
0
  6
Continuous
 62
     7
370
    15
100
AcDbSpline
210
0.0
220
0.0
230
1.0
 70
     8
 71
     3
 72
    12
 73
     8
 74
     0
 42
0.00000001
 43
0.00000001
 40
0.0
 40
0.0
 40
0.0
 40
0.0
 40
0.0481689939445392
 40
0.2636839403235535
 40
0.5023078680622732
 40
0.7662985287873557
 40
0.9999999999999999
 40
0.9999999999999999
 40
0.9999999999999999
 40
0.9999999999999999
 10
212.0643556440742
 20
188.020940862341
 30
0.0
 10
212.044742140901
 20
188.0133415762973
 30
0.0
 10
211.9373750282264
 20
187.9717420010613
 30
0.0
 10
211.7517454625707
 20
187.856505016075
 30
0.0
 10
211.5091667870027
 20
187.6687965079527
 30
0.0
 10
211.2895776032762
 20
187.446267097384
 30
0.0
 10
211.1656200902055
 20
187.2772791216609
 30
0.0
 10
211.1074133167536
 20
187.197927377863
 30
0.0
  0
SPLINE
  5
66
330
1F
100
AcDbEntity
  8
0
  6
Continuous
 62
     7
370
    15
100
AcDbSpline
210
0.0
220
0.0
230
1.0
 70
     8
 71
     3
 72
    11
 73
     7
 74
     0
 42
0.00000001
 43
0.00000001
 40
0.0
 40
0.0
 40
0.0
 40
0.0
 40
0.2237038479118482
 40
0.5186308601719057
 40
0.7761247163793776
 40
1.0
 40
1.0
 40
1.0
 40
1.0
 10
176.3106072644265
 20
126.9280901101661
 30
0.0
 10
176.2725634028754
 20
126.842009852699
 30
0.0
 10
176.1843632184589
 20
126.6424429771593
 30
0.0
 10
176.0995653033663
 20
126.3250428679377
 30
0.0
 10
176.0537595275452
 20
125.9948647986382
 30
0.0
 10
176.0672716469084
 20
125.7863095837155
 30
0.0
 10
176.0735558668644
 20
125.6893146706057
 30
0.0
  0
SPLINE
  5
67
330
1F
100
AcDbEntity
  8
0
  6
Continuous
 62
     7
370
    15
100
AcDbSpline
210
0.0
220
0.0
230
1.0
 70
     8
 71
     3
 72
    11
 73
     7
 74
     0
 42
0.00000001
 43
0.00000001
 40
0.0
 40
0.0
 40
0.0
 40
0.0
 40
0.2237022121494601
 40
0.5186311600305805
 40
0.7761239259663697
 40
1.0
 40
1.0
 40
1.0
 40
1.0
 10
186.6661170820267
 20
173.0867400688363
 30
0.0
 10
186.5725483495413
 20
173.0766467490595
 30
0.0
 10
186.3556186204821
 20
173.0532463986827
 30
0.0
 10
186.0383426676752
 20
172.967983828782
 30
0.0
 10
185.7294988897567
 20
172.8425597729586
 30
0.0
 10
185.5556393813014
 20
172.7265829872598
 30
0.0
 10
185.4747804204495
 20
172.6726442498398
 30
0.0
  0
SPLINE
  5
68
330
1F
100
AcDbEntity
  8
0
  6
Continuous
 62
     7
370
    15
100
AcDbSpline
210
0.0
220
0.0
230
1.0
 70
     8
 71
     3
 72
    11
 73
     7
 74
     0
 42
0.00000001
 43
0.00000001
 40
0.0
 40
0.0
 40
0.0
 40
0.0
 40
0.2237043761116969
 40
0.5186309028072454
 40
0.7761254835697505
 40
0.9999999999999999
 40
0.9999999999999999
 40
0.9999999999999999
 40
0.9999999999999999
 10
211.1074133167536
 20
94.88062932316785
 30
0.0
 10
211.1629392007052
 20
94.80464201609767
 30
0.0
 10
211.2916690888885
 20
94.62847485141054
 30
0.0
 10
211.5241463211566
 20
94.39633676658075
 30
0.0
 10
211.7871876414555
 20
94.19158122340801
 30
0.0
 10
211.974556420363
 20
94.09900304703193
 30
0.0
 10
212.0616976494462
 20
94.05594690863614
 30
0.0
  0
SPLINE
  5
69
330
1F
100
AcDbEntity
  8
0
  6
Continuous
 62
     7
370
    15
100
AcDbSpline
210
0.0
220
0.0
230
1.0
 70
     8
 71
     3
 72
    15
 73
    11
 74
     0
 42
0.00000001
 43
0.00000001
 40
0.0
 40
0.0
 40
0.0
 40
0.0
 40
0.2450686952562114
 40
0.495239306529627
 40
0.7624466200644556
 40
0.8298052954129991
 40
0.8631265127738397
 40
0.9093999319655117
 40
0.971672899665774
 40
1.0
 40
1.0
 40
1.0
 40
1.0
 10
176.8501336077721
 20
140.8607582775654
 30
0.0
 10
176.8054018740476
 20
140.8145901781176
 30
0.0
 10
176.7150071675087
 20
140.7212928374254
 30
0.0
 10
176.6120665536523
 20
140.6121145182959
 30
0.0
 10
176.5705423461639
 20
140.5666543515656
 30
0.0
 10
176.5417961869786
 20
140.530366629336
 30
0.0
 10
176.5215626959098
 20
140.497792441451
 30
0.0
 10
176.5030285029197
 20
140.4536287912128
 30
0.0
 10
176.491459428762
 20
140.4057218203093
 30
0.0
 10
176.4962608933963
 20
140.37391148885
 30
0.0
 10
176.4977621237309
 20
140.3639656414521
 30
0.0
  0
SPLINE
  5
6A
330
1F
100
AcDbEntity
  8
0
  6
Continuous
 62
     7
370
    15
100
AcDbSpline
210
0.0
220
0.0
230
1.0
 70
     8
 71
     3
 72
    17
 73
    13
 74
     0
 42
0.00000001
 43
0.00000001
 40
0.0
 40
0.0
 40
0.0
 40
0.0
 40
0.0458951396500837
 40
0.0932798400244867
 40
0.1305576578406177
 40
0.159135498346934
 40
0.1910163301859697
 40
0.2471462376584162
 40
0.3990215415584391
 40
0.6547268351058986
 40
0.9212709542355387
 40
1.0
 40
1.0
 40
1.0
 40
1.0
 10
176.4951991240056
 20
141.6978149132115
 30
0.0
 10
176.4956024007081
 20
141.6818366606545
 30
0.0
 10
176.4964220427572
 20
141.6493615695282
 30
0.0
 10
176.5099375225412
 20
141.6063996818694
 30
0.0
 10
176.5255706630727
 20
141.5741438364843
 30
0.0
 10
176.5381454324554
 20
141.554208741979
 30
0.0
 10
176.5493762419272
 20
141.5385977443012
 30
0.0
 10
176.5662140827874
 20
141.5176829970383
 30
0.0
 10
176.5982010619963
 20
141.4814884442332
 30
0.0
 10
176.6763520965277
 20
141.3979732899548
 30
0.0
 10
176.7690450229715
 20
141.3011718733584
 30
0.0
 10
176.8363511208114
 20
141.2320551843237
 30
0.0
 10
176.8516982296975
 20
141.2162952251743
 30
0.0
  0
SPLINE
  5
6B
330
1F
100
AcDbEntity
  8
0
  6
Continuous
 62
     7
370
    15
100
AcDbSpline
210
0.0
220
0.0
230
1.0
 70
     8
 71
     3
 72
    10
 73
     6
 74
     0
 42
0.00000001
 43
0.00000001
 40
0.0
 40
0.0
 40
0.0
 40
0.0
 40
0.4203145670689371
 40
0.8886356097699347
 40
1.0
 40
1.0
 40
1.0
 40
1.0
 10
201.1820944348843
 20
147.4213208926154
 30
0.0
 10
200.8167255348887
 20
147.1886313370449
 30
0.0
 10
200.0442569109657
 20
146.6966754513771
 30
0.0
 10
199.2084565193218
 20
146.156582592492
 30
0.0
 10
198.737819886253
 20
145.8492787914851
 30
0.0
 10
198.6474050531657
 20
145.7902421166432
 30
0.0
  0
SPLINE
  5
6C
330
1F
100
AcDbEntity
  8
0
  6
Continuous
 62
     7
370
    15
100
AcDbSpline
210
0.0
220
0.0
230
1.0
 70
     8
 71
     3
 72
    10
 73
     6
 74
     0
 42
0.00000001
 43
0.00000001
 40
0.0
 40
0.0
 40
0.0
 40
0.0
 40
0.4203144932332811
 40
0.8886356253252878
 40
1.0
 40
1.0
 40
1.0
 40
1.0
 10
216.8495208347709
 20
161.7940142673684
 30
0.0
 10
216.4653214444813
 20
161.9940874160372
 30
0.0
 10
215.6530409475293
 20
162.4170852675043
 30
0.0
 10
214.7674070231075
 20
162.8708662138386
 30
0.0
 10
214.2659553143959
 20
163.1247958205761
 30
0.0
 10
214.1696205685408
 20
163.173578671856
 30
0.0
  0
SPLINE
  5
6D
330
1F
100
AcDbEntity
  8
0
  6
Continuous
 62
     7
370
    15
100
AcDbSpline
210
0.0
220
0.0
230
1.0
 70
     8
 71
     3
 72
    10
 73
     6
 74
     0
 42
0.00000001
 43
0.00000001
 40
0.0
 40
0.0
 40
0.0
 40
0.0
 40
0.420314604230293
 40
0.8886356417934104
 40
1.0
 40
1.0
 40
1.0
 40
1.0
 10
205.7954976657898
 20
126.6665849757624
 30
0.0
 10
205.8143286444339
 20
126.2338214886197
 30
0.0
 10
205.8541413909448
 20
125.318866225892
 30
0.0
 10
205.9039755884595
 20
124.3249955066904
 30
0.0
 10
205.9347905061246
 20
123.7637610468235
 30
0.0
 10
205.9407104129465
 20
123.6559413296414
 30
0.0
  0
SPLINE
  5
6E
330
1F
100
AcDbEntity
  8
0
  6
Continuous
 62
     7
370
    15
100
AcDbSpline
210
0.0
220
0.0
230
1.0
 70
     8
 71
     3
 72
    10
 73
     6
 74
     0
 42
0.00000001
 43
0.00000001
 40
0.0
 40
0.0
 40
0.0
 40
0.0
 40
0.1115821578223095
 40
0.5956402966249279
 40
1.0
 40
1.0
 40
1.0
 40
1.0
 10
198.6466171542675
 20
136.2886801284981
 30
0.0
 10
198.7370379501578
 20
136.2295818445676
 30
0.0
 10
199.2197161017214
 20
135.9141073990343
 30
0.0
 10
200.0583258052805
 20
135.3727011697664
 30
0.0
 10
200.8338390219657
 20
134.8794776404409
 30
0.0
 10
201.1868106524022
 20
134.6549889927042
 30
0.0
  0
SPLINE
  5
6F
330
1F
100
AcDbEntity
  8
0
  6
Continuous
 62
     7
370
    15
100
AcDbSpline
210
0.0
220
0.0
230
1.0
 70
     8
 71
     3
 72
    10
 73
     6
 74
     0
 42
0.00000001
 43
0.00000001
 40
0.0
 40
0.0
 40
0.0
 40
0.0
 40
0.1115822184661313
 40
0.5956404110072535
 40
1.0
 40
1.0
 40
1.0
 40
1.0
 10
205.9406321818502
 20
158.4234815013838
 30
0.0
 10
205.9346619701149
 20
158.3156254307189
 30
0.0
 10
205.9027922025057
 20
157.7398756818469
 30
0.0
 10
205.8532257150221
 20
156.7429152385182
 30
0.0
 10
205.8138382230824
 20
155.8246900660928
 30
0.0
 10
205.795911173013
 20
155.4067637694312
 30
0.0
  0
SPLINE
  5
70
330
1F
100
AcDbEntity
  8
0
  6
Continuous
 62
     7
370
    15
100
AcDbSpline
210
0.0
220
0.0
230
1.0
 70
     8
 71
     3
 72
    10
 73
     6
 74
     0
 42
0.00000001
 43
0.00000001
 40
0.0
 40
0.0
 40
0.0
 40
0.0
 40
0.1115821391938282
 40
0.5956403903382378
 40
1.0
 40
1.0
 40
1.0
 40
1.0
 10
214.1689095037551
 20
118.9044769776297
 30
0.0
 10
214.2653005063037
 20
118.953234419503
 30
0.0
 10
214.7798485764337
 20
119.2135081686815
 30
0.0
 10
215.6680256323513
 20
119.6690648667037
 30
0.0
 10
216.4829260281513
 20
120.0940663997911
 30
0.0
 10
216.8538244763882
 20
120.2875040394497
 30
0.0
  0
LINE
  5
71
330
1F
100
AcDbEntity
  8
0
  6
Continuous
 62
     7
370
    15
100
AcDbLine
 10
209.4618501464
 20
184.8476305527
 30
0.0
 11
211.112899738
 21
187.2055753988
 31
0.0
  0
LINE
  5
72
330
1F
100
AcDbEntity
  8
0
  6
Continuous
 62
     7
370
    15
100
AcDbLine
 10
177.5232414106
 20
152.5502195505
 30
0.0
 11
176.3067255119
 21
155.1590412778
 31
0.0
  0
LINE
  5
73
330
1F
100
AcDbEntity
  8
0
  6
Continuous
 62
     7
370
    15
100
AcDbLine
 10
186.6567517022
 20
173.0858124716
 30
0.0
 11
189.5243162612
 21
173.3366921467
 31
0.0
  0
LINE
  5
74
330
1F
100
AcDbEntity
  8
0
  6
Continuous
 62
     7
370
    15
100
AcDbLine
 10
176.3067255119
 20
126.9195154232
 30
0.0
 11
177.5232414106
 21
129.5283371506
 31
0.0
  0
LINE
  5
75
330
1F
100
AcDbEntity
  8
0
  6
Continuous
 62
     7
370
    15
100
AcDbLine
 10
189.5243162612
 20
108.7418645543
 30
0.0
 11
186.6567517022
 21
108.9927442295
 31
0.0
  0
LINE
  5
76
330
1F
100
AcDbEntity
  8
0
  6
Continuous
 62
     7
370
    15
100
AcDbLine
 10
211.112899738
 20
94.8729813022
 30
0.0
 11
209.4618501464
 21
97.2309261483
 31
0.0
  0
SPLINE
  5
77
330
1F
100
AcDbEntity
  8
0
  6
Continuous
 62
     7
370
    15
100
AcDbSpline
210
0.0
220
0.0
230
1.0
 70
    24
 71
     3
 72
    12
 73
     8
 74
     0
 42
0.00000001
 43
0.00000001
 40
0.0
 40
0.0
 40
0.0
 40
0.0
 40
0.5000000000000031
 40
0.5000000000000031
 40
0.7500000000000016
 40
0.7500000000000016
 40
1.0
 40
1.0
 40
1.0
 40
1.0
 10
221.462924996999
 20
160.8835182791574
 30
0.0
 10
221.462924996999
 20
160.8563389981446
 30
0.0
 10
221.462924996999
 20
160.7103801865452
 30
0.0
 10
221.462924996999
 20
160.3685600253294
 30
0.0
 10
221.462924996999
 20
160.235767461269
 30
0.0
 10
221.462924996999
 20
159.9466221141646
 30
0.0
 10
221.462924996999
 20
159.7940804591233
 30
0.0
 10
221.462924996999
 20
159.6381694765255
 30
0.0
  0
SPLINE
  5
78
330
1F
100
AcDbEntity
  8
0
  6
Continuous
 62
     7
370
    15
100
AcDbSpline
210
0.0
220
0.0
230
1.0
 70
    24
 71
     3
 72
    12
 73
     8
 74
     0
 42
0.00000001
 43
0.00000001
 40
0.0
 40
0.0
 40
0.0
 40
0.0
 40
0.5000000000000021
 40
0.5000000000000021
 40
0.750000000000001
 40
0.750000000000001
 40
1.0
 40
1.0
 40
1.0
 40
1.0
 10
221.462924996999
 20
122.4403872245053
 30
0.0
 10
221.462924996999
 20
122.1285659422051
 30
0.0
 10
221.462924996999
 20
121.8234144365744
 30
0.0
 10
221.462924996999
 20
121.4817429360845
 30
0.0
 10
221.462924996999
 20
121.3877929939398
 30
0.0
 10
221.462924996999
 20
121.2505814530735
 30
0.0
 10
221.462924996999
 20
121.2086280325557
 30
0.0
 10
221.462924996999
 20
121.1950384218734
 30
0.0
  0
SPLINE
  5
79
330
1F
100
AcDbEntity
  8
0
  6
Continuous
 62
     7
370
    15
100
AcDbSpline
210
0.0
220
0.0
230
1.0
 70
     8
 71
     3
 72
    12
 73
     8
 74
     0
 42
0.00000001
 43
0.00000001
 40
0.0
 40
0.0
 40
0.0
 40
0.0
 40
0.1413378094561663
 40
0.3560010719328064
 40
0.5706657099820144
 40
0.7853338881528497
 40
1.0
 40
1.0
 40
1.0
 40
1.0
 10
221.2116325422217
 20
93.05269642893796
 30
0.0
 10
221.2116321130575
 20
93.05236708649866
 30
0.0
 10
221.2116310320804
 20
93.05153754016659
 30
0.0
 10
221.2117948241088
 20
93.17853539437981
 30
0.0
 10
221.2120854950616
 20
93.40253079846909
 30
0.0
 10
221.212478098785
 20
93.70277874615394
 30
0.0
 10
221.2127760234894
 20
93.92755531699962
 30
0.0
 10
221.2129249851247
 20
94.03994306151395
 30
0.0
  0
LINE
  5
7A
330
1F
100
AcDbEntity
  8
0
  6
Continuous
 62
     7
370
    15
100
AcDbLine
 10
221.2129249851
 20
94.0399430615
 30
0.0
 11
221.462924997
 21
94.0399430615
 31
0.0
  0
LINE
  5
7B
330
1F
100
AcDbEntity
  8
0
  6
Continuous
 62
     7
370
    15
100
AcDbLine
 10
210.6226990322
 20
141.5662628638
 30
0.0
 11
210.9250482495
 21
141.3917015521
 31
0.0
  0
LINE
  5
7C
330
1F
100
AcDbEntity
  8
0
  6
Continuous
 62
     7
370
    15
100
AcDbLine
 10
210.9250482495
 20
140.686855149
 30
0.0
 11
210.6226990322
 21
140.5122938372
 31
0.0
  0
ARC
  5
7D
330
1F
100
AcDbEntity
  8
0
  6
Continuous
 62
     7
370
    15
100
AcDbCircle
 10
221.462924997
 20
141.0392783505
 30
0.0
 40
10.99142478397963
100
AcDbArc
 50
91.2743201748
 51
176.0298062715
  0
ARC
  5
7E
330
1F
100
AcDbEntity
  8
0
  6
Continuous
 62
     7
370
    15
100
AcDbCircle
 10
221.462924997
 20
141.0392783505
 30
0.0
 40
10.99142478397963
100
AcDbArc
 50
183.9701937285
 51
268.7256798252
  0
SPLINE
  5
7F
330
1F
100
AcDbEntity
  8
0
  6
Continuous
 62
     7
370
    15
100
AcDbSpline
210
0.0
220
0.0
230
1.0
 70
    24
 71
     3
 72
    10
 73
     6
 74
     0
 42
0.00000001
 43
0.00000001
 40
0.0
 40
0.0
 40
0.0
 40
0.0
 40
0.5
 40
0.5
 40
1.0
 40
1.0
 40
1.0
 40
1.0
 10
221.462924996999
 20
129.8006718927022
 30
0.0
 10
221.462924996999
 20
129.7995319692798
 30
0.0
 10
221.462924996999
 20
129.7718881941214
 30
0.0
 10
221.462924996999
 20
129.6798043013233
 30
0.0
 10
221.462924996999
 20
129.615949005341
 30
0.0
 10
221.462924996999
 20
129.5506494779299
 30
0.0
  0
SPLINE
  5
80
330
1F
100
AcDbEntity
  8
0
  6
Continuous
 62
     7
370
    15
100
AcDbSpline
210
0.0
220
0.0
230
1.0
 70
    24
 71
     3
 72
    10
 73
     6
 74
     0
 42
0.00000001
 43
0.00000001
 40
0.0
 40
0.0
 40
0.0
 40
0.0
 40
0.5
 40
0.5
 40
1.0
 40
1.0
 40
1.0
 40
1.0
 10
221.462924996999
 20
102.7987088289574
 30
0.0
 10
221.462924996999
 20
102.7975692958456
 30
0.0
 10
221.462924996999
 20
102.7699383598758
 30
0.0
 10
221.462924996999
 20
102.6778806225608
 30
0.0
 10
221.462924996999
 20
102.6140339173658
 30
0.0
 10
221.462924996999
 20
102.5487415982677
 30
0.0
  0
ARC
  5
81
330
1F
100
AcDbEntity
  8
0
  6
Continuous
 62
     7
370
    15
100
AcDbCircle
 10
221.462924997
 20
141.0392783505
 30
0.0
 40
37.99142478397965
100
AcDbArc
 50
90.3745692336
 51
269.6254307664
  0
SPLINE
  5
82
330
1F
100
AcDbEntity
  8
0
  6
Continuous
 62
     7
370
    15
100
AcDbSpline
210
0.0
220
0.0
230
1.0
 70
    24
 71
     3
 72
    10
 73
     6
 74
     0
 42
0.00000001
 43
0.00000001
 40
0.0
 40
0.0
 40
0.0
 40
0.0
 40
0.5
 40
0.5
 40
1.0
 40
1.0
 40
1.0
 40
1.0
 10
221.462924996999
 20
179.5298151027631
 30
0.0
 10
221.462924996999
 20
179.4645228107736
 30
0.0
 10
221.462924996999
 20
179.400520037705
 30
0.0
 10
221.462924996999
 20
179.3085255834081
 30
0.0
 10
221.462924996999
 20
179.2809874047167
 30
0.0
 10
221.462924996999
 20
179.2798478720734
 30
0.0
  0
SPLINE
  5
83
330
1F
100
AcDbEntity
  8
0
  6
Continuous
 62
     7
370
    15
100
AcDbSpline
210
0.0
220
0.0
230
1.0
 70
    24
 71
     3
 72
    10
 73
     6
 74
     0
 42
0.00000001
 43
0.00000001
 40
0.0
 40
0.0
 40
0.0
 40
0.0
 40
0.5
 40
0.5
 40
1.0
 40
1.0
 40
1.0
 40
1.0
 10
221.462924996999
 20
152.527907223101
 30
0.0
 10
221.462924996999
 20
152.4626080068057
 30
0.0
 10
221.462924996999
 20
152.3985953255339
 30
0.0
 10
221.462924996999
 20
152.3065767397289
 30
0.0
 10
221.462924996999
 20
152.2790247264076
 30
0.0
 10
221.462924996999
 20
152.2778848083286
 30
0.0
  0
SPLINE
  5
84
330
1F
100
AcDbEntity
  8
0
  6
Continuous
 62
     7
370
    15
100
AcDbSpline
210
0.0
220
0.0
230
1.0
 70
     8
 71
     3
 72
    20
 73
    16
 74
     0
 42
0.00000001
 43
0.00000001
 40
0.0
 40
0.0
 40
0.0
 40
0.0
 40
0.0769524745803283
 40
0.1538902523087297
 40
0.2308160035470966
 40
0.3077323997323633
 40
0.3846421131381777
 40
0.461547816636163
 40
0.5384521834568428
 40
0.6153578869503982
 40
0.6922676003473555
 40
0.7691839965193341
 40
0.8461097477399855
 40
0.9230475254462417
 40
1.0
 40
1.0
 40
1.0
 40
1.0
 10
210.9250479993963
 20
141.3917015584247
 30
0.0
 10
210.9434575231314
 20
141.3798842114574
 30
0.0
 10
210.9802730546388
 20
141.3562517744716
 30
0.0
 10
211.0273878965
 20
141.3101552919935
 30
0.0
 10
211.0669587392061
 20
141.2577071311046
 30
0.0
 10
211.0974841986938
 20
141.1994340936187
 30
0.0
 10
211.118303834491
 20
141.1370660674205
 30
0.0
 10
211.1288455532517
 20
141.0721562516244
 30
0.0
 10
211.1288455532453
 20
141.0064004493282
 30
0.0
 10
211.1183038344728
 20
140.9414906335378
 30
0.0
 10
211.097484198667
 20
140.8791226073506
 30
0.0
 10
211.0669587391757
 20
140.8208495698794
 30
0.0
 10
211.0273878964724
 20
140.7684014090076
 30
0.0
 10
210.9802730546213
 20
140.7223049265467
 30
0.0
 10
210.9434575231252
 20
140.698672489569
 30
0.0
 10
210.9250479993963
 20
140.6868551426061
 30
0.0
  0
LINE
  5
85
330
1F
100
AcDbEntity
  8
0
  6
Continuous
 62
     7
370
    15
100
AcDbLine
 10
221.462924997
 20
98.5392779035
 30
0.0
 11
221.462924997
 21
94.0399430615
 31
0.0
  0
ARC
  5
86
330
1F
100
AcDbEntity
  8
0
  6
Continuous
 62
     7
370
    15
100
AcDbCircle
 10
221.212924997
 20
181.1871966222
 30
0.0
 40
0.25
100
AcDbArc
 50
0.0
 51
79.5243183036
  0
ARC
  5
87
330
1F
100
AcDbEntity
  8
0
  6
Continuous
 62
     7
370
    15
100
AcDbCircle
 10
221.462924997
 20
141.0392783505
 30
0.0
 40
44.97336045327641
100
AcDbArc
 50
166.8977032339
 51
179.1569945878
  0
ARC
  5
88
330
1F
100
AcDbEntity
  8
0
  6
Continuous
 62
     7
370
    15
100
AcDbCircle
 10
221.462924997
 20
141.0392783505
 30
0.0
 40
44.97336045327641
100
AcDbArc
 50
180.8430054122
 51
193.1022967661
  0
LINE
  5
89
330
1F
100
AcDbEntity
  8
0
  6
Continuous
 62
     7
370
    15
100
AcDbLine
 10
221.462924997
 20
181.1871975583
 30
0.0
 11
221.462924997
 21
179.5298159045
 31
0.0
  0
ARC
  5
8A
330
1F
100
AcDbEntity
  8
0
  6
Continuous
 62
     7
370
    15
100
AcDbCircle
 10
221.462924997
 20
182.5392783505
 30
0.0
 40
1.125000000000024
100
AcDbArc
 50
100.4756816964
 51
259.5243183036
  0
LINE
  5
8B
330
1F
100
AcDbEntity
  8
0
  6
Continuous
 62
     7
370
    15
100
AcDbLine
 10
221.462924997
 20
102.5487407965
 30
0.0
 11
221.462924997
 21
100.5392782313
 31
0.0
  0
ARC
  5
8C
330
1F
100
AcDbEntity
  8
0
  6
Continuous
 62
     7
370
    15
100
AcDbCircle
 10
221.462924997
 20
99.5392783505
 30
0.0
 40
1.0
100
AcDbArc
 50
270.0
 51
90.0
  0
ARC
  5
8D
330
1F
100
AcDbEntity
  8
0
  6
Continuous
 62
     7
370
    15
100
AcDbCircle
 10
221.212924997
 20
183.8913600788
 30
0.0
 40
0.2500000000000056
100
AcDbArc
 50
280.4756816964
 51
0.0
  0
LINE
  5
8E
330
1F
100
AcDbEntity
  8
0
  6
Continuous
 62
     7
370
    15
100
AcDbLine
 10
221.462924997
 20
129.5506497768
 30
0.0
 11
221.462924997
 21
126.9933180806
 31
0.0
  0
LINE
  5
8F
330
1F
100
AcDbEntity
  8
0
  6
Continuous
 62
     7
370
    15
100
AcDbLine
 10
221.462924997
 20
124.9933186841
 30
0.0
 11
221.462924997
 21
122.4403865558
 31
0.0
  0
LINE
  5
90
330
1F
100
AcDbEntity
  8
0
  6
Continuous
 62
     7
370
    15
100
AcDbLine
 10
221.462924997
 20
159.6381701452
 30
0.0
 11
221.462924997
 21
157.4373207909
 31
0.0
  0
ARC
  5
91
330
1F
100
AcDbEntity
  8
0
  6
Continuous
 62
     7
370
    15
100
AcDbCircle
 10
221.462924997
 20
125.9933184058
 30
0.0
 40
1.0
100
AcDbArc
 50
270.0
 51
90.0
  0
ARC
  5
92
330
1F
100
AcDbEntity
  8
0
  6
Continuous
 62
     7
370
    15
100
AcDbCircle
 10
221.212924997
 20
157.4373200235
 30
0.0
 40
0.2500000000000056
100
AcDbArc
 50
280.4756816964
 51
0.0
  0
ARC
  5
93
330
1F
100
AcDbEntity
  8
0
  6
Continuous
 62
     7
370
    15
100
AcDbCircle
 10
221.462924997
 20
156.0852382952
 30
0.0
 40
1.125000000000024
100
AcDbArc
 50
100.4756816964
 51
259.5243183036
  0
LINE
  5
94
330
1F
100
AcDbEntity
  8
0
  6
Continuous
 62
     7
370
    15
100
AcDbLine
 10
221.462924997
 20
154.7331567777
 30
0.0
 11
221.462924997
 21
152.5279069242
 31
0.0
  0
ARC
  5
95
330
1F
100
AcDbEntity
  8
0
  6
Continuous
 62
     7
370
    15
100
AcDbCircle
 10
221.212924997
 20
154.7331565669
 30
0.0
 40
0.2500000000000056
100
AcDbArc
 50
0.0
 51
79.5243183036
  0
SPLINE
  5
96
330
1F
100
AcDbEntity
  8
0
  6
Continuous
 62
     7
370
    15
100
AcDbSpline
210
0.0
220
0.0
230
1.0
 70
     8
 71
     3
 72
    14
 73
    10
 74
     0
 42
0.00000001
 43
0.00000001
 40
0.0
 40
0.0
 40
0.0
 40
0.0
 40
0.2499999999999999
 40
0.2499999999999999
 40
0.4999999999999998
 40
0.4999999999999998
 40
0.7499999999999999
 40
0.7499999999999999
 40
1.0
 40
1.0
 40
1.0
 40
1.0
 10
176.8518814674837
 20
141.2160281218651
 30
0.0
 10
176.8666617485672
 20
141.2003436201387
 30
0.0
 10
176.8824914107364
 20
141.1800486789551
 30
0.0
 10
176.9102487726206
 20
141.1217057299263
 30
0.0
 10
176.9215808941418
 20
141.0815123554327
 30
0.0
 10
176.9214382586182
 20
140.996172566992
 30
0.0
 10
176.9100250758254
 20
140.9563080901767
 30
0.0
 10
176.8824979040736
 20
140.8985949414418
 30
0.0
 10
176.8666249810506
 20
140.8781740640309
 30
0.0
 10
176.8518814674837
 20
140.8625285791657
 30
0.0
  0
SPLINE
  5
97
330
1F
100
AcDbEntity
  8
0
  6
Continuous
 62
     7
370
    15
100
AcDbSpline
210
0.0
220
0.0
230
1.0
 70
     8
 71
     3
 72
     8
 73
     4
 74
     0
 42
0.00000001
 43
0.00000001
 40
0.0
 40
0.0
 40
0.0
 40
0.0
 40
1.0
 40
1.0
 40
1.0
 40
1.0
 10
180.5592592553248
 20
150.6106168448652
 30
0.0
 10
180.5552971178657
 20
150.5943841684359
 30
0.0
 10
180.5513532205693
 20
150.5782088042264
 30
0.0
 10
180.5474882403291
 20
150.5623277148552
 30
0.0
  0
ARC
  5
98
330
1F
100
AcDbEntity
  8
0
  6
Continuous
 62
     7
370
    15
100
AcDbCircle
 10
221.2129453208
 20
129.9534999614
 30
0.0
 40
0.2499796768802825
100
AcDbArc
 50
0.0042495695
 51
88.7128682773
  0
LINE
  5
99
330
1F
100
AcDbEntity
  8
0
  6
Continuous
 62
     7
370
    15
100
AcDbLine
 10
221.462924997
 20
129.9535185022
 30
0.0
 11
221.462924997
 21
129.8006717039
 31
0.0
  0
ARC
  5
9A
330
1F
100
AcDbEntity
  8
0
  6
Continuous
 62
     7
370
    15
100
AcDbCircle
 10
210.7474709265
 20
141.782631372
 30
0.0
 40
0.2497666049434233
100
AcDbArc
 50
208.0842384114
 51
240.0295059903
  0
ARC
  5
9B
330
1F
100
AcDbEntity
  8
0
  6
Continuous
 62
     7
370
    15
100
AcDbCircle
 10
221.2129453208
 20
152.1250567396
 30
0.0
 40
0.2499796768802959
100
AcDbArc
 50
271.2871317227
 51
359.9957504305
  0
LINE
  5
9C
330
1F
100
AcDbEntity
  8
0
  6
Continuous
 62
     7
370
    15
100
AcDbLine
 10
221.462924997
 20
152.2778849972
 30
0.0
 11
221.462924997
 21
152.1250381989
 31
0.0
  0
SPLINE
  5
9D
330
1F
100
AcDbEntity
  8
0
  6
Continuous
 62
     7
370
    15
100
AcDbSpline
210
0.0
220
0.0
230
1.0
 70
     8
 71
     3
 72
     8
 73
     4
 74
     0
 42
0.00000001
 43
0.00000001
 40
0.0
 40
0.0
 40
0.0
 40
0.0
 40
0.0000119711937373
 40
0.0000119711937373
 40
0.0000119711937373
 40
0.0000119711937373
 10
221.212924996999
 20
178.9508741158849
 30
0.0
 10
221.2129249969974
 20
178.9509437603832
 30
0.0
 10
221.2135169471313
 20
178.9510177889887
 30
0.0
 10
221.2145636553967
 20
178.9510918497207
 30
0.0
  0
SPLINE
  5
9E
330
1F
100
AcDbEntity
  8
0
  6
Continuous
 62
     7
370
    15
100
AcDbSpline
210
0.0
220
0.0
230
1.0
 70
     8
 71
     3
 72
     8
 73
     4
 74
     0
 42
0.00000001
 43
0.00000001
 40
0.0000000001614022
 40
0.0000000001614022
 40
0.0000000001614022
 40
0.0000000001614022
 40
0.0000119713586644
 40
0.0000119713586644
 40
0.0000119713586644
 40
0.0000119713586644
 10
221.2145636562057
 20
103.1274648512423
 30
0.0
 10
221.2135169474031
 20
103.1275389119972
 30
0.0
 10
221.2129249969719
 20
103.1276129406265
 30
0.0
 10
221.2129249969732
 20
103.1276825851459
 30
0.0
  0
ARC
  5
9F
330
1F
100
AcDbEntity
  8
0
  6
Continuous
 62
     7
370
    15
100
AcDbCircle
 10
210.7474694248
 20
140.2959271438
 30
0.0
 40
0.2497642826245431
100
AcDbArc
 50
119.9704035541
 51
151.7643728929
  0
ARC
  5
A0
330
1F
100
AcDbEntity
  8
0
  6
Continuous
 62
     7
370
    15
100
AcDbCircle
 10
221.462924997
 20
141.0392783505
 30
0.0
 40
10.83861680763592
100
AcDbArc
 50
91.2918841091
 51
177.3587060347
  0
ARC
  5
A1
330
1F
100
AcDbEntity
  8
0
  6
Continuous
 62
     7
370
    15
100
AcDbCircle
 10
221.462924997
 20
141.0392783505
 30
0.0
 40
10.83861680763583
100
AcDbArc
 50
182.6412939653
 51
268.7081158909
  0
SPLINE
  5
A2
330
1F
100
AcDbEntity
  8
0
  6
Continuous
 62
     7
370
    15
100
AcDbSpline
210
0.0
220
0.0
230
1.0
 70
     8
 71
     3
 72
    11
 73
     7
 74
     0
 42
0.00000001
 43
0.00000001
 40
0.0
 40
0.0
 40
0.0
 40
0.0
 40
0.0000203500177052
 40
0.0000203500177052
 40
0.0000203500177052
 40
0.0000356849405044
 40
0.0000356849405044
 40
0.0000356849405044
 40
0.0000356849405044
 10
221.2145636552318
 20
178.9510918497196
 30
0.0
 10
221.2163431445655
 20
178.951217753806
 30
0.0
 10
221.2195946979865
 20
178.9513740075296
 30
0.0
 10
221.2229156927245
 20
178.9516100130137
 30
0.0
 10
221.2254182555557
 20
178.9517878568825
 30
0.0
 10
221.2280915614302
 20
178.9520111092073
 30
0.0
 10
221.2306753276957
 20
178.9522719057342
 30
0.0
  0
LINE
  5
A3
330
1F
100
AcDbEntity
  8
0
  6
Continuous
 62
     7
370
    15
100
AcDbLine
 10
221.462924997
 20
179.2798489255
 30
0.0
 11
221.462924997
 21
179.2016029281
 31
0.0
  0
SPLINE
  5
A4
330
1F
100
AcDbEntity
  8
0
  6
Continuous
 62
     7
370
    15
100
AcDbSpline
210
0.0
220
0.0
230
1.0
 70
     8
 71
     3
 72
    14
 73
    10
 74
     0
 42
0.00000001
 43
0.00000001
 40
0.0
 40
0.0
 40
0.0
 40
0.0
 40
0.0000136107123887
 40
0.0000136107123887
 40
0.0000136107123887
 40
0.000020352660502
 40
0.000020352660502
 40
0.000020352660502
 40
0.0000356875833009
 40
0.0000356875833009
 40
0.0000356875833009
 40
0.0000356875833009
 10
221.2145636562057
 20
103.1274648512423
 30
0.0
 10
221.2157538332999
 20
103.1273806427448
 30
0.0
 10
221.2176344022008
 20
103.1272849431899
 30
0.0
 10
221.2197031477507
 20
103.1271583780805
 30
0.0
 10
221.2207314882621
 20
103.1270954645775
 30
0.0
 10
221.2218115782036
 20
103.1270251515808
 30
0.0
 10
221.2229156927261
 20
103.1269466880171
 30
0.0
 10
221.2254182555633
 20
103.126768844148
 30
0.0
 10
221.2280915614307
 20
103.1265455918235
 30
0.0
 10
221.2306753276958
 20
103.1262847952966
 30
0.0
  0
LINE
  5
A5
330
1F
100
AcDbEntity
  8
0
  6
Continuous
 62
     7
370
    15
100
AcDbLine
 10
221.462924997
 20
102.8769537729
 30
0.0
 11
221.462924997
 21
102.7987077755
 31
0.0
  0
LINE
  5
A6
330
1F
100
AcDbEntity
  8
0
  6
Continuous
 62
     7
370
    15
100
AcDbLine
 10
201.1897722582
 20
147.4106530582
 30
0.0
 11
201.2908319334
 21
147.4833963362
 31
0.0
  0
LINE
  5
A7
330
1F
100
AcDbEntity
  8
0
  6
Continuous
 62
     7
370
    15
100
AcDbLine
 10
216.8441210265
 20
161.7820300085
 30
0.0
 11
216.9576487827
 21
161.7308817727
 31
0.0
  0
LINE
  5
A8
330
1F
100
AcDbEntity
  8
0
  6
Continuous
 62
     7
370
    15
100
AcDbLine
 10
205.80857716
 20
126.6679009346
 30
0.0
 11
205.7961086134
 21
126.791792914
 31
0.0
  0
LINE
  5
A9
330
1F
100
AcDbEntity
  8
0
  6
Continuous
 62
     7
370
    15
100
AcDbLine
 10
201.2908319334
 20
134.5951603648
 30
0.0
 11
201.1918714593
 21
134.6624335197
 31
0.0
  0
LINE
  5
AA
330
1F
100
AcDbEntity
  8
0
  6
Continuous
 62
     7
370
    15
100
AcDbLine
 10
205.7961086134
 20
155.286763787
 30
0.0
 11
205.8048891226
 21
155.4061034617
 31
0.0
  0
LINE
  5
AB
330
1F
100
AcDbEntity
  8
0
  6
Continuous
 62
     7
370
    15
100
AcDbLine
 10
216.9576487827
 20
120.3476749284
 30
0.0
 11
216.8499077993
 21
120.2956084085
 31
0.0
  0
SPLINE
  5
AC
330
1F
100
AcDbEntity
  8
0
  6
Continuous
 62
     7
370
    15
100
AcDbSpline
210
0.0
220
0.0
230
1.0
 70
     8
 71
     3
 72
     8
 73
     4
 74
     0
 42
0.00000001
 43
0.00000001
 40
0.0
 40
0.0
 40
0.0
 40
0.0
 40
1.0
 40
1.0
 40
1.0
 40
1.0
 10
221.2098504664434
 20
161.5377161759202
 30
0.0
 10
221.2445576135032
 20
161.5381446717413
 30
0.0
 10
221.2785448362285
 20
161.5314269106755
 30
0.0
 10
221.3104836734403
 20
161.5178382828769
 30
0.0
  0
SPLINE
  5
AD
330
1F
100
AcDbEntity
  8
0
  6
Continuous
 62
     7
370
    15
100
AcDbSpline
210
0.0
220
0.0
230
1.0
 70
     8
 71
     3
 72
    29
 73
    25
 74
     0
 42
0.00000001
 43
0.00000001
 40
0.0
 40
0.0
 40
0.0
 40
0.0
 40
0.0000001152040939
 40
0.0000001152040939
 40
0.0000001152040939
 40
0.0000002649067204
 40
0.0000002649067204
 40
0.0000002649067204
 40
0.0000005515109894
 40
0.0000005515109894
 40
0.0000005515109894
 40
0.0000016420431917
 40
0.0000016420431917
 40
0.0000016420431917
 40
0.0000059614613384
 40
0.0000059614613384
 40
0.0000059614613384
 40
0.0000231652713546
 40
0.0000231652713546
 40
0.0000231652713546
 40
0.0000919354316937
 40
0.0000919354316937
 40
0.0000919354316937
 40
0.0002075117016383
 40
0.0002075117016383
 40
0.0002075117016383
 40
0.0002075117016383
 10
221.337924996999
 20
161.4865293810286
 30
0.0
 10
221.3378917404495
 20
161.4865485109281
 30
0.0
 10
221.3378580709147
 20
161.4865685548796
 30
0.0
 10
221.3378269856227
 20
161.4865876067408
 30
0.0
 10
221.3377865766934
 20
161.486612372965
 30
0.0
 10
221.3377491420976
 20
161.4866362600613
 30
0.0
 10
221.3377155179527
 20
161.486658293114
 30
0.0
 10
221.3376513245124
 20
161.4867003574536
 30
0.0
 10
221.3375978932513
 20
161.4867375443687
 30
0.0
 10
221.33755043687
 20
161.486771529887
 30
0.0
 10
221.3373712383048
 20
161.4868998615455
 30
0.0
 10
221.3372564319037
 20
161.4869952975342
 30
0.0
 10
221.3371499868293
 20
161.4870855042314
 30
0.0
 10
221.3367284278466
 20
161.487442753674
 30
0.0
 10
221.3364772446091
 20
161.4877073627327
 30
0.0
 10
221.3362221390121
 20
161.4879730075406
 30
0.0
 10
221.335205697917
 20
161.4890314409994
 30
0.0
 10
221.3344624770973
 20
161.489933519162
 30
0.0
 10
221.333687673751
 20
161.4908482554091
 30
0.0
 10
221.3305903062783
 20
161.4945050211055
 30
0.0
 10
221.3277526398393
 20
161.4979438877909
 30
0.0
 10
221.324869066798
 20
161.5013410494817
 30
0.0
 10
221.3200229019101
 20
161.5070503571596
 30
0.0
 10
221.3152318902727
 20
161.5125386098719
 30
0.0
 10
221.3104836734682
 20
161.5178382828657
 30
0.0
  0
LINE
  5
AE
330
1F
100
AcDbEntity
  8
0
  6
Continuous
 62
     7
370
    15
100
AcDbLine
 10
221.462924997
 20
161.2708214593
 30
0.0
 11
221.462924997
 21
160.8835179282
 31
0.0
  0
SPLINE
  5
AF
330
1F
100
AcDbEntity
  8
0
  6
Continuous
 62
     7
370
    15
100
AcDbSpline
210
0.0
220
0.0
230
1.0
 70
     8
 71
     3
 72
    59
 73
    55
 74
     0
 42
0.00000001
 43
0.00000001
 40
0.0
 40
0.0
 40
0.0
 40
0.0
 40
0.0000685364513456
 40
0.0000685364513456
 40
0.0000685364513456
 40
0.0001142220835967
 40
0.0001142220835967
 40
0.0001142220835967
 40
0.0001446573565434
 40
0.0001446573565434
 40
0.0001446573565434
 40
0.0001649262865027
 40
0.0001649262865027
 40
0.0001649262865027
 40
0.0001784232755225
 40
0.0001784232755225
 40
0.0001784232755225
 40
0.0001874117309258
 40
0.0001874117309258
 40
0.0001874117309258
 40
0.0001933997258754
 40
0.0001933997258754
 40
0.0001933997258754
 40
0.000197391530215
 40
0.000197391530215
 40
0.000197391530215
 40
0.000200055662888
 40
0.000200055662888
 40
0.000200055662888
 40
0.0002018369946159
 40
0.0002018369946159
 40
0.0002018369946159
 40
0.0002030315359764
 40
0.0002030315359764
 40
0.0002030315359764
 40
0.0002038362151122
 40
0.0002038362151122
 40
0.0002038362151122
 40
0.0002043820917534
 40
0.0002043820917534
 40
0.0002043820917534
 40
0.0002047564942673
 40
0.0002047564942673
 40
0.0002047564942673
 40
0.0002051420777489
 40
0.0002051420777489
 40
0.0002051420777489
 40
0.0002052975480408
 40
0.0002052975480408
 40
0.0002052975480408
 40
0.0002054278184703
 40
0.0002054278184703
 40
0.0002054278184703
 40
0.0002055082756234
 40
0.0002055082756234
 40
0.0002055082756234
 40
0.0002055082756234
 10
221.3104836734425
 20
120.5607184181478
 30
0.0
 10
221.3133269496789
 20
120.5638919114637
 30
0.0
 10
221.3161873860949
 20
120.5671340152145
 30
0.0
 10
221.3190637113636
 20
120.5704495474358
 30
0.0
 10
221.3209810427938
 20
120.5726596500986
 30
0.0
 10
221.3229052108665
 20
120.5749022585059
 30
0.0
 10
221.3248394986492
 20
120.5771808188525
 30
0.0
 10
221.3261281018016
 20
120.5786987729396
 30
0.0
 10
221.327420925238
 20
120.5802325335634
 30
0.0
 10
221.3287234352055
 20
120.5817856326333
 30
0.0
 10
221.3295908660668
 20
120.5828199479919
 30
0.0
 10
221.3304623014378
 20
120.5838626787819
 30
0.0
 10
221.33134456489
 20
120.5849177821307
 30
0.0
 10
221.3319320600047
 20
120.5856203705258
 30
0.0
 10
221.3325240708525
 20
120.5863282874095
 30
0.0
 10
221.3331282423978
 20
120.5870458470483
 30
0.0
 10
221.3335305960108
 20
120.5875237125079
 30
0.0
 10
221.3339380851149
 20
120.5880057135791
 30
0.0
 10
221.3343586428939
 20
120.5884962883421
 30
0.0
 10
221.3346388123328
 20
120.5888231020712
 30
0.0
 10
221.3349245632868
 20
120.5891536037008
 30
0.0
 10
221.335223617446
 20
120.5894920915762
 30
0.0
 10
221.3354229761837
 20
120.589717738047
 30
0.0
 10
221.3356280695977
 20
120.5899468417019
 30
0.0
 10
221.3358460352587
 20
120.5901833550843
 30
0.0
 10
221.3359915043561
 20
120.5903412028303
 30
0.0
 10
221.3361425674539
 20
120.5905022826339
 30
0.0
 10
221.3363055753252
 20
120.5906700873003
 30
0.0
 10
221.336414566553
 20
120.5907822857879
 30
0.0
 10
221.3365287916342
 20
120.5908974434587
 30
0.0
 10
221.3366537593499
 20
120.5910185617953
 30
0.0
 10
221.3367375595883
 20
120.5910997807359
 30
0.0
 10
221.336826114475
 20
120.5911836521594
 30
0.0
 10
221.3369241309483
 20
120.5912727079188
 30
0.0
 10
221.3369901556444
 20
120.5913326966049
 30
0.0
 10
221.3370604270236
 20
120.591395028964
 30
0.0
 10
221.3371389345994
 20
120.5914618128095
 30
0.0
 10
221.337192189314
 20
120.591507114866
 30
0.0
 10
221.3372492201993
 20
120.5915544779536
 30
0.0
 10
221.3373133889703
 20
120.5916056323067
 30
0.0
 10
221.3373573954502
 20
120.5916407135929
 30
0.0
 10
221.3374047889081
 20
120.5916776189451
 30
0.0
 10
221.3374583629322
 20
120.5917177272066
 30
0.0
 10
221.3375133458657
 20
120.5917588902498
 30
0.0
 10
221.3375748199907
 20
120.5918036015924
 30
0.0
 10
221.3376512713347
 20
120.591855534728
 30
0.0
 10
221.3376822514247
 20
120.5918765793969
 30
0.0
 10
221.3377161534746
 20
120.5918990897617
 30
0.0
 10
221.3377536113047
 20
120.5919230955132
 30
0.0
 10
221.3377848889627
 20
120.5919431405528
 30
0.0
 10
221.3378193972477
 20
120.5919646841375
 30
0.0
 10
221.337855629331
 20
120.5919864923263
 30
0.0
 10
221.3378781580899
 20
120.5920000524471
 30
0.0
 10
221.3379016656816
 20
120.5920138992477
 30
0.0
 10
221.3379249971827
 20
120.5920273200391
 30
0.0
  0
SPLINE
  5
B0
330
1F
100
AcDbEntity
  8
0
  6
Continuous
 62
     7
370
    15
100
AcDbSpline
210
0.0
220
0.0
230
1.0
 70
     8
 71
     3
 72
     8
 73
     4
 74
     0
 42
0.00000001
 43
0.00000001
 40
0.0
 40
0.0
 40
0.0
 40
0.0
 40
1.0
 40
1.0
 40
1.0
 40
1.0
 10
221.3104836734404
 20
120.5607184181539
 30
0.0
 10
221.2785451104114
 20
120.5471299070086
 30
0.0
 10
221.2445574608521
 20
120.5404120311741
 30
0.0
 10
221.2098504664434
 20
120.5408405251107
 30
0.0
  0
LINE
  5
B1
330
1F
100
AcDbEntity
  8
0
  6
Continuous
 62
     7
370
    15
100
AcDbLine
 10
221.462924997
 20
121.1950387729
 30
0.0
 11
221.462924997
 21
120.8077352417
 31
0.0
  0
ARC
  5
B2
330
1F
100
AcDbEntity
  8
0
  6
Continuous
 62
     7
370
    15
100
AcDbCircle
 10
203.8069573074
 20
127.0923501961
 30
0.0
 40
1.999999999999993
100
AcDbArc
 50
355.964286622
 51
38.3061652729
  0
ARC
  5
B3
330
1F
100
AcDbEntity
  8
0
  6
Continuous
 62
     7
370
    15
100
AcDbCircle
 10
221.462924997
 20
141.0392783505
 30
0.0
 40
20.5
100
AcDbArc
 50
90.7073400407
 51
98.3061652729
  0
ARC
  5
B4
330
1F
100
AcDbEntity
  8
0
  6
Continuous
 62
     7
370
    15
100
AcDbCircle
 10
200.5565470657
 20
149.3563308209
 30
0.0
 40
2.000000000000009
100
AcDbArc
 50
295.964286622
 51
338.3061652729
  0
ARC
  5
B5
330
1F
100
AcDbEntity
  8
0
  6
Continuous
 62
     7
370
    15
100
AcDbCircle
 10
218.2125147553
 20
163.3032589753
 30
0.0
 40
2.000000000000019
100
AcDbArc
 50
235.964286622
 51
278.3061652729
  0
ARC
  5
B6
330
1F
100
AcDbEntity
  8
0
  6
Continuous
 62
     7
370
    15
100
AcDbCircle
 10
221.462924997
 20
141.0392783505
 30
0.0
 40
20.5
100
AcDbArc
 50
261.6938347271
 51
269.2926599593
  0
ARC
  5
B7
330
1F
100
AcDbEntity
  8
0
  6
Continuous
 62
     7
370
    15
100
AcDbCircle
 10
200.5565470657
 20
132.7222258801
 30
0.0
 40
2.000000000000189
100
AcDbArc
 50
21.6938347271
 51
64.035713378
  0
ARC
  5
B8
330
1F
100
AcDbEntity
  8
0
  6
Continuous
 62
     7
370
    15
100
AcDbCircle
 10
203.8069573074
 20
154.9862065049
 30
0.0
 40
2.0000000000002
100
AcDbArc
 50
321.6938347271
 51
4.035713378
  0
ARC
  5
B9
330
1F
100
AcDbEntity
  8
0
  6
Continuous
 62
     7
370
    15
100
AcDbCircle
 10
221.462924997
 20
141.0392783505
 30
0.0
 40
20.5
100
AcDbArc
 50
201.6938347271
 51
218.3061652729
  0
ARC
  5
BA
330
1F
100
AcDbEntity
  8
0
  6
Continuous
 62
     7
370
    15
100
AcDbCircle
 10
218.2125147553
 20
118.7752977257
 30
0.0
 40
2.000000000000214
100
AcDbArc
 50
81.6938347271
 51
124.035713378
  0
ARC
  5
BB
330
1F
100
AcDbEntity
  8
0
  6
Continuous
 62
     7
370
    15
100
AcDbCircle
 10
221.462924997
 20
141.0392783505
 30
0.0
 40
20.50000000000001
100
AcDbArc
 50
141.6938347271
 51
158.3061652729
  0
SPLINE
  5
BC
330
1F
100
AcDbEntity
  8
0
  6
Continuous
 62
     7
370
    15
100
AcDbSpline
210
0.0
220
0.0
230
1.0
 70
     8
 71
     3
 72
    17
 73
    13
 74
     0
 42
0.00000001
 43
0.00000001
 40
0.0000000000000074
 40
0.0000000000000074
 40
0.0000000000000074
 40
0.0000000000000074
 40
0.00000667434408
 40
0.00000667434408
 40
0.00000667434408
 40
0.0000134336329497
 40
0.0000134336329497
 40
0.0000134336329497
 40
0.0000172119517495
 40
0.0000172119517495
 40
0.0000172119517495
 40
0.000019836931626
 40
0.000019836931626
 40
0.000019836931626
 40
0.000019836931626
 10
180.5592592553253
 20
150.6106168448675
 30
0.0
 10
180.559722155917
 20
150.6125133251392
 30
0.0
 10
180.5601769385392
 20
150.6143499394817
 30
0.0
 10
180.5606062124938
 20
150.6160321208576
 30
0.0
 10
180.5610384848102
 20
150.6177260518124
 30
0.0
 10
180.5614546838248
 20
150.6193020763118
 30
0.0
 10
180.5617953160633
 20
150.6204708508889
 30
0.0
 10
180.5619868231752
 20
150.6211279485396
 30
0.0
 10
180.5621566401356
 20
150.6216614760716
 30
0.0
 10
180.5622818642492
 20
150.621975295948
 30
0.0
 10
180.5623692506241
 20
150.6221942919591
 30
0.0
 10
180.5624359728755
 20
150.6223083433642
 30
0.0
 10
180.5624759693743
 20
150.6222992388606
 30
0.0
  0
ARC
  5
BD
330
1F
100
AcDbEntity
  8
0
  6
Continuous
 62
     7
370
    15
100
AcDbCircle
 10
221.212924997
 20
102.8776771852
 30
0.0
 40
0.25
100
AcDbArc
 50
0.0
 51
84.5053411898
  0
SPLINE
  5
BE
330
1F
100
AcDbEntity
  8
0
  6
Continuous
 62
     7
370
    15
100
AcDbSpline
210
0.0
220
0.0
230
1.0
 70
    24
 71
     3
 72
     9
 73
     5
 74
     0
 42
0.00000001
 43
0.00000001
 40
0.0
 40
0.0
 40
0.0
 40
0.0
 40
0.5
 40
1.0
 40
1.0
 40
1.0
 40
1.0
 10
221.212924996999
 20
103.1308121964367
 30
0.0
 10
221.212924996999
 20
103.1299553705151
 30
0.0
 10
221.212924996999
 20
103.1285761364968
 30
0.0
 10
221.212924996999
 20
103.1278678986305
 30
0.0
 10
221.212924996999
 20
103.1276825851458
 30
0.0
  0
SPLINE
  5
BF
330
1F
100
AcDbEntity
  8
0
  6
Continuous
 62
     7
370
    15
100
AcDbSpline
210
0.0
220
0.0
230
1.0
 70
    24
 71
     3
 72
    10
 73
     6
 74
     0
 42
0.00000001
 43
0.00000001
 40
0.0
 40
0.0
 40
0.0
 40
0.0
 40
0.5
 40
0.5
 40
1.0
 40
1.0
 40
1.0
 40
1.0
 10
221.212924996999
 20
178.9508741158846
 30
0.0
 10
221.212924996999
 20
178.9506898404923
 30
0.0
 10
221.212924996999
 20
178.9503380465337
 30
0.0
 10
221.212924996999
 20
178.9492949000191
 30
0.0
 10
221.212924996999
 20
178.948602287406
 30
0.0
 10
221.212924996999
 20
178.9477445045933
 30
0.0
  0
SPLINE
  5
C0
330
1F
100
AcDbEntity
  8
0
  6
Continuous
 62
     7
370
    15
100
AcDbSpline
210
0.0
220
0.0
230
1.0
 70
     8
 71
     3
 72
    29
 73
    25
 74
     0
 42
0.00000001
 43
0.00000001
 40
0.0000000000000017
 40
0.0000000000000017
 40
0.0000000000000017
 40
0.0000000000000017
 40
0.0000002355895901
 40
0.0000002355895901
 40
0.0000002355895901
 40
0.0000221213680332
 40
0.0000221213680332
 40
0.0000221213680332
 40
0.000028205362243
 40
0.000028205362243
 40
0.000028205362243
 40
0.0000355920095676
 40
0.0000355920095676
 40
0.0000355920095676
 40
0.0000412869567174
 40
0.0000412869567174
 40
0.0000412869567174
 40
0.0000478723256193
 40
0.0000478723256193
 40
0.0000478723256193
 40
0.0000586801988106
 40
0.0000586801988106
 40
0.0000586801988106
 40
0.0000924486534727
 40
0.0000924486534727
 40
0.0000924486534727
 40
0.0000924486534727
 10
221.2306753276949
 20
178.9522719057342
 30
0.0
 10
221.230644902089
 20
178.952268477389
 30
0.0
 10
221.2306144840313
 20
178.9522650566882
 30
0.0
 10
221.2305840736991
 20
178.9522616436349
 30
0.0
 10
221.227759875447
 20
178.9519446744183
 30
0.0
 10
221.224928670686
 20
178.951693550826
 30
0.0
 10
221.2225723322095
 20
178.9515105088229
 30
0.0
 10
221.2219168900073
 20
178.9514595936192
 30
0.0
 10
221.2213047418799
 20
178.9514139039412
 30
0.0
 10
221.2207845864401
 20
178.9513736718537
 30
0.0
 10
221.2201544416942
 20
178.9513249325026
 30
0.0
 10
221.2196595165449
 20
178.9512839730032
 30
0.0
 10
221.2194456247403
 20
178.951252134566
 30
0.0
 10
221.2192806505354
 20
178.9512275776604
 30
0.0
 10
221.2192889002238
 20
178.9512083675642
 30
0.0
 10
221.2194680517021
 20
178.9511949650253
 30
0.0
 10
221.2196753112733
 20
178.951179459686
 30
0.0
 10
221.2201028656658
 20
178.9511715526349
 30
0.0
 10
221.2206460744732
 20
178.9511707172121
 30
0.0
 10
221.2215380091596
 20
178.9511693454697
 30
0.0
 10
221.2227225283167
 20
178.9511867575391
 30
0.0
 10
221.2239760581589
 20
178.9512211677908
 30
0.0
 10
221.2278931877559
 20
178.9513286956777
 30
0.0
 10
221.2324375316038
 20
178.9516025030024
 30
0.0
 10
221.2368632369705
 20
178.9520282335679
 30
0.0
  0
ARC
  5
C1
330
1F
100
AcDbEntity
  8
0
  6
Continuous
 62
     7
370
    15
100
AcDbCircle
 10
221.2512301532
 20
178.8027266959
 30
0.0
 40
0.1499900675314259
100
AcDbArc
 50
95.4965489845
 51
104.7963815096
  0
ARC
  5
C2
330
1F
100
AcDbEntity
  8
0
  6
Continuous
 62
     7
370
    15
100
AcDbCircle
 10
221.212924997
 20
179.2008795158
 30
0.0
 40
0.2500000000000037
100
AcDbArc
 50
275.4946588077
 51
0.0
  0
SPLINE
  5
C3
330
1F
100
AcDbEntity
  8
0
  6
Continuous
 62
     7
370
    15
100
AcDbSpline
210
0.0
220
0.0
230
1.0
 70
    24
 71
     3
 72
    12
 73
     8
 74
     0
 42
0.00000001
 43
0.00000001
 40
0.0
 40
0.0
 40
0.0
 40
0.0
 40
0.5
 40
0.5
 40
0.75
 40
0.75
 40
1.0
 40
1.0
 40
1.0
 40
1.0
 10
221.212924996999
 20
104.1275526079311
 30
0.0
 10
221.212924996999
 20
103.9677316930438
 30
0.0
 10
221.212924996999
 20
103.8086245312069
 30
0.0
 10
221.212924996999
 20
103.597291795191
 30
0.0
 10
221.212924996999
 20
103.5302050098061
 30
0.0
 10
221.212924996999
 20
103.410275394848
 30
0.0
 10
221.212924996999
 20
103.3570272438109
 30
0.0
 10
221.212924996999
 20
103.3106898871368
 30
0.0
  0
SPLINE
  5
C4
330
1F
100
AcDbEntity
  8
0
  6
Continuous
 62
     7
370
    15
100
AcDbSpline
210
0.0
220
0.0
230
1.0
 70
    24
 71
     3
 72
    10
 73
     6
 74
     0
 42
0.00000001
 43
0.00000001
 40
0.0
 40
0.0
 40
0.0
 40
0.0
 40
0.5
 40
0.5
 40
1.0
 40
1.0
 40
1.0
 40
1.0
 10
221.212924996999
 20
103.3106898871368
 30
0.0
 10
221.212924996999
 20
103.2589555079601
 30
0.0
 10
221.212924996999
 20
103.2178670426028
 30
0.0
 10
221.212924996999
 20
103.1572045910209
 30
0.0
 10
221.212924996999
 20
103.1379818009057
 30
0.0
 10
221.212924996999
 20
103.1308121964367
 30
0.0
  0
SPLINE
  5
C5
330
1F
100
AcDbEntity
  8
0
  6
Continuous
 62
     7
370
    15
100
AcDbSpline
210
0.0
220
0.0
230
1.0
 70
    24
 71
     3
 72
    10
 73
     6
 74
     0
 42
0.00000001
 43
0.00000001
 40
0.0
 40
0.0
 40
0.0
 40
0.0
 40
0.0436720987971174
 40
0.9786055484642893
 40
0.9999999999999999
 40
0.9999999999999999
 40
0.9999999999999999
 40
0.9999999999999999
 10
221.2129249851247
 20
178.8746006709767
 30
0.0
 10
221.2129249851247
 20
178.8738412421334
 30
0.0
 10
221.2129249851247
 20
178.8568239404657
 30
0.0
 10
221.2129249851247
 20
178.8099466640322
 30
0.0
 10
221.2129249851247
 20
178.7687881545894
 30
0.0
 10
221.2129249851247
 20
178.7678673786355
 30
0.0
  0
SPLINE
  5
C6
330
1F
100
AcDbEntity
  8
0
  6
Continuous
 62
     7
370
    15
100
AcDbSpline
210
0.0
220
0.0
230
1.0
 70
    24
 71
     3
 72
    12
 73
     8
 74
     0
 42
0.00000001
 43
0.00000001
 40
0.0
 40
0.0
 40
0.0
 40
0.0
 40
0.250000000000005
 40
0.250000000000005
 40
0.50000000000001
 40
0.50000000000001
 40
1.0
 40
1.0
 40
1.0
 40
1.0
 10
221.212924996999
 20
178.7678668139048
 30
0.0
 10
221.212924996999
 20
178.7214933374388
 30
0.0
 10
221.212924996999
 20
178.6682266666645
 30
0.0
 10
221.212924996999
 20
178.5483420489875
 30
0.0
 10
221.212924996999
 20
178.4812281639462
 30
0.0
 10
221.212924996999
 20
178.2698750147887
 30
0.0
 10
221.212924996999
 20
178.1107247775448
 30
0.0
 10
221.212924996999
 20
177.9510040930998
 30
0.0
  0
ARC
  5
C7
330
1F
100
AcDbEntity
  8
0
  6
Continuous
 62
     7
370
    15
100
AcDbCircle
 10
221.462924997
 20
103.3106898871
 30
0.0
 40
0.25
100
AcDbArc
 50
179.9999999975
 51
240.0
  0
ARC
  5
C8
330
1F
100
AcDbEntity
  8
0
  6
Continuous
 62
     7
370
    15
100
AcDbCircle
 10
221.462924997
 20
178.7678668139
 30
0.0
 40
0.25
100
AcDbArc
 50
120.0
 51
180.0
  0
ARC
  5
C9
330
1F
100
AcDbEntity
  8
0
  6
Continuous
 62
     7
370
    15
100
AcDbCircle
 10
212.212924997
 20
110.7892783505
 30
0.0
 40
3.150000000000006
100
AcDbArc
 50
90.0
 51
270.0
  0
ARC
  5
CA
330
1F
100
AcDbEntity
  8
0
  6
Continuous
 62
     7
370
    15
100
AcDbCircle
 10
221.212924997
 20
161.2877539036
 30
0.0
 40
0.25
100
AcDbArc
 50
0.0
 51
60.0
  0
SPLINE
  5
CB
330
1F
100
AcDbEntity
  8
0
  6
Continuous
 62
     7
370
    15
100
AcDbSpline
210
0.0
220
0.0
230
1.0
 70
    24
 71
     3
 72
    11
 73
     7
 74
     0
 42
0.00000001
 43
0.00000001
 40
0.0
 40
0.0
 40
0.0
 40
0.0
 40
0.0002071751997602
 40
0.0002071751997602
 40
0.0002071751997602
 40
0.0004011522747206
 40
0.0004011522747206
 40
0.0004011522747206
 40
0.0004011522747206
 10
221.462924996999
 20
161.2877539035901
 30
0.0
 10
221.462924996999
 20
161.2877539035901
 30
0.0
 10
221.462924996999
 20
161.2862470493477
 30
0.0
 10
221.462924996999
 20
161.283235490852
 30
0.0
 10
221.462924996999
 20
161.2804157821778
 30
0.0
 10
221.462924996999
 20
161.2762758376781
 30
0.0
 10
221.462924996999
 20
161.2708208358475
 30
0.0
  0
ARC
  5
CC
330
1F
100
AcDbEntity
  8
0
  6
Continuous
 62
     7
370
    15
100
AcDbCircle
 10
221.212924997
 20
120.7908027974
 30
0.0
 40
0.2500000000000082
100
AcDbArc
 50
300.0
 51
360.0
  0
SPLINE
  5
CD
330
1F
100
AcDbEntity
  8
0
  6
Continuous
 62
     7
370
    15
100
AcDbSpline
210
0.0
220
0.0
230
1.0
 70
    24
 71
     3
 72
    11
 73
     7
 74
     0
 42
0.00000001
 43
0.00000001
 40
0.000013329060721
 40
0.000013329060721
 40
0.000013329060721
 40
0.000013329060721
 40
0.0002073060762236
 40
0.0002073060762236
 40
0.0002073060762236
 40
0.0004144812137264
 40
0.0004144812137264
 40
0.0004144812137264
 40
0.0004144812137264
 10
221.462924996999
 20
120.8077358650849
 30
0.0
 10
221.462924996999
 20
120.8022808633029
 30
0.0
 10
221.462924996999
 20
120.798140918836
 30
0.0
 10
221.462924996999
 20
120.7953212101788
 30
0.0
 10
221.462924996999
 20
120.7923096516832
 30
0.0
 10
221.462924996999
 20
120.7908027974408
 30
0.0
 10
221.462924996999
 20
120.7908027974408
 30
0.0
  0
SPLINE
  5
CE
330
1F
100
AcDbEntity
  8
0
  6
Continuous
 62
     7
370
    15
100
AcDbSpline
210
0.0
220
0.0
230
1.0
 70
     8
 71
     3
 72
     8
 73
     4
 74
     0
 42
0.00000001
 43
0.00000001
 40
0.0
 40
0.0
 40
0.0
 40
0.0
 40
1.0
 40
1.0
 40
1.0
 40
1.0
 10
221.3104836734425
 20
161.517838282883
 30
0.0
 10
221.2495214277227
 20
161.5647840409007
 30
0.0
 10
221.2129249969991
 20
161.639224516087
 30
0.0
 10
221.212924996999
 20
161.7161668169572
 30
0.0
  0
SPLINE
  5
CF
330
1F
100
AcDbEntity
  8
0
  6
Continuous
 62
     7
370
    15
100
AcDbSpline
210
0.0
220
0.0
230
1.0
 70
     8
 71
     3
 72
     8
 73
     4
 74
     0
 42
0.00000001
 43
0.00000001
 40
0.0
 40
0.0
 40
0.0
 40
0.0
 40
1.0
 40
1.0
 40
1.0
 40
1.0
 10
221.212924996999
 20
120.3623898840736
 30
0.0
 10
221.212924996999
 20
120.4393325737057
 30
0.0
 10
221.2495212920934
 20
120.5137725556828
 30
0.0
 10
221.3104836734438
 20
120.5607184181467
 30
0.0
  0
SPLINE
  5
D0
330
1F
100
AcDbEntity
  8
0
  6
Continuous
 62
     7
370
    15
100
AcDbSpline
210
0.0
220
0.0
230
1.0
 70
     8
 71
     3
 72
     8
 73
     4
 74
     0
 42
0.00000001
 43
0.00000001
 40
0.0
 40
0.0
 40
0.0
 40
0.0
 40
1.0
 40
1.0
 40
1.0
 40
1.0
 10
185.8825157953524
 20
141.6977456241218
 30
0.0
 10
185.7900712327063
 20
141.2652760195844
 30
0.0
 10
185.7900712327063
 20
140.8132806814464
 30
0.0
 10
185.8825157953524
 20
140.380811076909
 30
0.0
  0
ARC
  5
D1
330
1F
100
AcDbEntity
  8
0
  6
Continuous
 62
     7
370
    15
100
AcDbCircle
 10
188.962924997
 20
141.0392783505
 30
0.0
 40
3.150000000000007
100
AcDbArc
 50
192.0659374221
 51
270.0
  0
ARC
  5
D2
330
1F
100
AcDbEntity
  8
0
  6
Continuous
 62
     7
370
    15
100
AcDbCircle
 10
188.962924997
 20
141.0392783505
 30
0.0
 40
3.150000000000007
100
AcDbArc
 50
90.0
 51
167.9340625779
  0
SPLINE
  5
D3
330
1F
100
AcDbEntity
  8
0
  6
Continuous
 62
     7
370
    15
100
AcDbSpline
210
0.0
220
0.0
230
1.0
 70
     8
 71
     3
 72
    15
 73
    11
 74
     0
 42
0.00000001
 43
0.00000001
 40
0.0
 40
0.0
 40
0.0
 40
0.0
 40
0.1004955300758643
 40
0.2069077155004257
 40
0.3205283532360513
 40
0.4420203396775245
 40
0.5699806966066618
 40
0.7058266468509597
 40
0.8483827635748319
 40
1.0
 40
1.0
 40
1.0
 40
1.0
 10
208.7143175567307
 20
165.5822979265126
 30
0.0
 10
208.7094669323534
 20
165.5713056244528
 30
0.0
 10
208.6994801040049
 20
165.548673850626
 30
0.0
 10
208.6822240073256
 20
165.5144306590377
 30
0.0
 10
208.6615426335408
 20
165.4792059801664
 30
0.0
 10
208.6383284203608
 20
165.4425300873039
 30
0.0
 10
208.6127451142417
 20
165.4042081662648
 30
0.0
 10
208.5837117788173
 20
165.3652454540273
 30
0.0
 10
208.552456425991
 20
165.3244227718654
 30
0.0
 10
208.5299855875124
 20
165.297365213605
 30
0.0
 10
208.5184040951923
 20
165.2834197213844
 30
0.0
  0
SPLINE
  5
D4
330
1F
100
AcDbEntity
  8
0
  6
Continuous
 62
     7
370
    15
100
AcDbSpline
210
0.0
220
0.0
230
1.0
 70
     8
 71
     3
 72
    11
 73
     7
 74
     0
 42
0.00000001
 43
0.00000001
 40
0.0
 40
0.0
 40
0.0
 40
0.0
 40
0.2279766368774545
 40
0.467721483235133
 40
0.7239671660077208
 40
1.0
 40
1.0
 40
1.0
 40
1.0
 10
208.7744137105769
 20
165.9008075418972
 30
0.0
 10
208.7752640770051
 20
165.8759375894193
 30
0.0
 10
208.7770087059835
 20
165.8249138914636
 30
0.0
 10
208.7656985535154
 20
165.7465268209376
 30
0.0
 10
208.745922962051
 20
165.6646054236468
 30
0.0
 10
208.7251105878961
 20
165.6104053775233
 30
0.0
 10
208.7143175567307
 20
165.5822979265126
 30
0.0
  0
SPLINE
  5
D5
330
1F
100
AcDbEntity
  8
0
  6
Continuous
 62
     7
370
    15
100
AcDbSpline
210
0.0
220
0.0
230
1.0
 70
     8
 71
     3
 72
    15
 73
    11
 74
     0
 42
0.00000001
 43
0.00000001
 40
0.0
 40
0.0
 40
0.0
 40
0.0
 40
0.1367113707110911
 40
0.268473268553413
 40
0.3973531136949907
 40
0.5220600738878328
 40
0.6445740224105132
 40
0.7647696130671995
 40
0.8834023288789301
 40
1.0
 40
1.0
 40
1.0
 40
1.0
 10
208.6418015310897
 20
166.2898299777947
 30
0.0
 10
208.6513526878845
 20
166.2735136527338
 30
0.0
 10
208.6701092131819
 20
166.2414717157895
 30
0.0
 10
208.6943960000141
 20
166.1921653002161
 30
0.0
 10
208.7162907349713
 20
166.1435689339631
 30
0.0
 10
208.7341705736902
 20
166.0947149937667
 30
0.0
 10
208.74973430813
 20
166.0463292630709
 30
0.0
 10
208.7611891168366
 20
165.997666241107
 30
0.0
 10
208.76983144384
 20
165.9492492245081
 30
0.0
 10
208.7728951232506
 20
165.9168613706022
 30
0.0
 10
208.7744137105769
 20
165.9008075418972
 30
0.0
  0
SPLINE
  5
D6
330
1F
100
AcDbEntity
  8
0
  6
Continuous
 62
     7
370
    15
100
AcDbSpline
210
0.0
220
0.0
230
1.0
 70
     8
 71
     3
 72
    11
 73
     7
 74
     0
 42
0.00000001
 43
0.00000001
 40
0.0
 40
0.0
 40
0.0
 40
0.0
 40
0.2761874396586866
 40
0.5341515630495625
 40
0.7741224358726599
 40
1.0
 40
1.0
 40
1.0
 40
1.0
 10
208.3569457618589
 20
166.6087402342049
 30
0.0
 10
208.3869064593804
 20
166.5829063275919
 30
0.0
 10
208.4448509967241
 20
166.5329430793932
 30
0.0
 10
208.5215612439641
 20
166.452811215983
 30
0.0
 10
208.5882289361847
 20
166.3732169104294
 30
0.0
 10
208.6243078309508
 20
166.3170593102099
 30
0.0
 10
208.6418015310897
 20
166.2898299777947
 30
0.0
  0
SPLINE
  5
D7
330
1F
100
AcDbEntity
  8
0
  6
Continuous
 62
     7
370
    15
100
AcDbSpline
210
0.0
220
0.0
230
1.0
 70
     8
 71
     3
 72
    27
 73
    23
 74
     0
 42
0.00000001
 43
0.00000001
 40
0.0
 40
0.0
 40
0.0
 40
0.0
 40
0.0373515852517013
 40
0.074283077537773
 40
0.1109353304369324
 40
0.1470165328075958
 40
0.183402504807912
 40
0.220075736961439
 40
0.2566964984442364
 40
0.2939700454114824
 40
0.3692169345525001
 40
0.4455770638570237
 40
0.5243886900573494
 40
0.6058365836900617
 40
0.6481896710231007
 40
0.6926686737879556
 40
0.7386478316521691
 40
0.78668511804013
 40
0.8369763496761676
 40
0.8890357353229671
 40
0.943465258652913
 40
1.0
 40
1.0
 40
1.0
 40
1.0
 10
207.2531797362179
 20
166.810663311128
 30
0.0
 10
207.2659192847096
 20
166.8186756799679
 30
0.0
 10
207.2912551000981
 20
166.8346103026027
 30
0.0
 10
207.3305266272435
 20
166.8560488336279
 30
0.0
 10
207.3709968328556
 20
166.8738831826644
 30
0.0
 10
207.4122184832636
 20
166.8891941717661
 30
0.0
 10
207.4542431394967
 20
166.9023021946864
 30
0.0
 10
207.4974984339749
 20
166.9114872133579
 30
0.0
 10
207.5414148957146
 20
166.9191353319896
 30
0.0
 10
207.6013511406215
 20
166.9240736861815
 30
0.0
 10
207.6775920310733
 20
166.9246042495937
 30
0.0
 10
207.7700768193882
 20
166.9144032656261
 30
0.0
 10
207.8632363466462
 20
166.8933172408481
 30
0.0
 10
207.9406808086871
 20
166.8671131566308
 30
0.0
 10
208.003365600364
 20
166.8412241642123
 30
0.0
 10
208.0515830037234
 20
166.8179682491314
 30
0.0
 10
208.1007093353165
 20
166.7914621095575
 30
0.0
 10
208.1503246302813
 20
166.7611259660358
 30
0.0
 10
208.2011590375234
 20
166.7281318212108
 30
0.0
 10
208.2524649909714
 20
166.6912705321627
 30
0.0
 10
208.3050954376895
 20
166.651949342154
 30
0.0
 10
208.3394450928385
 20
166.623324295327
 30
0.0
 10
208.3569457618589
 20
166.6087402342049
 30
0.0
  0
SPLINE
  5
D8
330
1F
100
AcDbEntity
  8
0
  6
Continuous
 62
     7
370
    15
100
AcDbSpline
210
0.0
220
0.0
230
1.0
 70
     8
 71
     3
 72
    15
 73
    11
 74
     0
 42
0.00000001
 43
0.00000001
 40
0.0
 40
0.0
 40
0.0
 40
0.0
 40
0.1577264283871998
 40
0.3063698089051709
 40
0.4451514585406953
 40
0.5749830530328051
 40
0.6944837555977528
 40
0.8052257489809025
 40
0.9068176410694322
 40
1.0
 40
1.0
 40
1.0
 40
1.0
 10
206.980743838782
 20
166.5446376701024
 30
0.0
 10
206.9938009801782
 20
166.5598871960921
 30
0.0
 10
207.0191633367299
 20
166.5895080682006
 30
0.0
 10
207.0565155614511
 20
166.6321329185819
 30
0.0
 10
207.0932850899071
 20
166.6704663892503
 30
0.0
 10
207.1277650557371
 20
166.7058605411121
 30
0.0
 10
207.1613420594812
 20
166.7370676873509
 30
0.0
 10
207.1926891734211
 20
166.7653985315042
 30
0.0
 10
207.2233026543366
 20
166.7894288632721
 30
0.0
 10
207.2435115540284
 20
166.8037918733022
 30
0.0
 10
207.2531797362179
 20
166.810663311128
 30
0.0
  0
LINE
  5
D9
330
1F
100
AcDbEntity
  8
0
  6
Continuous
 62
     7
370
    15
100
AcDbLine
 10
206.5091897125
 20
165.9825388265
 30
0.0
 11
206.9807434777
 21
166.5446385664
 31
0.0
  0
LINE
  5
DA
330
1F
100
AcDbEntity
  8
0
  6
Continuous
 62
     7
370
    15
100
AcDbLine
 10
208.0324264566
 20
164.7044941706
 30
0.0
 11
206.5091897125
 21
165.9825388265
 31
0.0
  0
LINE
  5
DB
330
1F
100
AcDbEntity
  8
0
  6
Continuous
 62
     7
370
    15
100
AcDbLine
 10
208.5184045459
 20
165.2834191841
 30
0.0
 11
208.0324264566
 21
164.7044941706
 31
0.0
  0
LINE
  5
DC
330
1F
100
AcDbEntity
  8
0
  6
Continuous
 62
     7
370
    15
100
AcDbLine
 10
205.4174030522
 20
164.1585379762
 30
0.0
 11
205.03919668
 21
163.7074164969
 31
0.0
  0
LINE
  5
DD
330
1F
100
AcDbEntity
  8
0
  6
Continuous
 62
     7
370
    15
100
AcDbLine
 10
205.1597899149
 20
164.3744837416
 30
0.0
 11
205.4174030522
 21
164.1585379762
 31
0.0
  0
LINE
  5
DE
330
1F
100
AcDbEntity
  8
0
  6
Continuous
 62
     7
370
    15
100
AcDbLine
 10
204.1441658834
 20
163.1637457681
 30
0.0
 11
205.1597899149
 21
164.3744837416
 31
0.0
  0
LINE
  5
DF
330
1F
100
AcDbEntity
  8
0
  6
Continuous
 62
     7
370
    15
100
AcDbLine
 10
204.4017771582
 20
162.9478000027
 30
0.0
 11
204.1441658834
 21
163.1637457681
 31
0.0
  0
LINE
  5
E0
330
1F
100
AcDbEntity
  8
0
  6
Continuous
 62
     7
370
    15
100
AcDbLine
 10
204.7807844678
 20
163.3997242821
 30
0.0
 11
204.4017771582
 21
162.9478000027
 31
0.0
  0
LINE
  5
E1
330
1F
100
AcDbEntity
  8
0
  6
Continuous
 62
     7
370
    15
100
AcDbLine
 10
206.0464090059
 20
162.3376253915
 30
0.0
 11
204.7807844678
 21
163.3997242821
 31
0.0
  0
LINE
  5
E2
330
1F
100
AcDbEntity
  8
0
  6
Continuous
 62
     7
370
    15
100
AcDbLine
 10
206.3048221494
 20
162.6453176064
 30
0.0
 11
206.0464090059
 21
162.3376253915
 31
0.0
  0
LINE
  5
E3
330
1F
100
AcDbEntity
  8
0
  6
Continuous
 62
     7
370
    15
100
AcDbLine
 10
205.03919668
 20
163.7074164969
 30
0.0
 11
206.3048221494
 21
162.6453176064
 31
0.0
  0
LINE
  5
E4
330
1F
100
AcDbEntity
  8
0
  6
Continuous
 62
     7
370
    15
100
AcDbLine
 10
203.2876899789
 20
159.5715880317
 30
0.0
 11
204.00203302
 21
160.4229509753
 31
0.0
  0
LINE
  5
E5
330
1F
100
AcDbEntity
  8
0
  6
Continuous
 62
     7
370
    15
100
AcDbLine
 10
202.8730279157
 20
159.9193438811
 30
0.0
 11
203.2876899789
 21
159.5715880317
 31
0.0
  0
LINE
  5
E6
330
1F
100
AcDbEntity
  8
0
  6
Continuous
 62
     7
370
    15
100
AcDbLine
 10
203.514854456
 20
160.6841683311
 30
0.0
 11
202.8730279157
 21
159.9193438811
 31
0.0
  0
LINE
  5
E7
330
1F
100
AcDbEntity
  8
0
  6
Continuous
 62
     7
370
    15
100
AcDbLine
 10
203.2584445874
 20
160.899313159
 30
0.0
 11
203.514854456
 21
160.6841683311
 31
0.0
  0
LINE
  5
E8
330
1F
100
AcDbEntity
  8
0
  6
Continuous
 62
     7
370
    15
100
AcDbLine
 10
202.6166161845
 20
160.134488709
 30
0.0
 11
203.2584445874
 21
160.899313159
 31
0.0
  0
LINE
  5
E9
330
1F
100
AcDbEntity
  8
0
  6
Continuous
 62
     7
370
    15
100
AcDbLine
 10
202.2788757781
 20
160.4181434882
 30
0.0
 11
202.6166161845
 21
160.134488709
 31
0.0
  0
LINE
  5
EA
330
1F
100
AcDbEntity
  8
0
  6
Continuous
 62
     7
370
    15
100
AcDbLine
 10
202.9687809149
 20
161.2402573151
 30
0.0
 11
202.2788757781
 21
160.4181434882
 31
0.0
  0
LINE
  5
EB
330
1F
100
AcDbEntity
  8
0
  6
Continuous
 62
     7
370
    15
100
AcDbLine
 10
202.7111677776
 20
161.4562030805
 30
0.0
 11
202.9687809149
 21
161.2402573151
 31
0.0
  0
LINE
  5
EC
330
1F
100
AcDbEntity
  8
0
  6
Continuous
 62
     7
370
    15
100
AcDbLine
 10
201.7632508973
 20
160.3263951761
 30
0.0
 11
202.7111677776
 21
161.4562030805
 31
0.0
  0
LINE
  5
ED
330
1F
100
AcDbEntity
  8
0
  6
Continuous
 62
     7
370
    15
100
AcDbLine
 10
203.2864885727
 20
159.0483505202
 30
0.0
 11
201.7632508973
 21
160.3263951761
 31
0.0
  0
LINE
  5
EE
330
1F
100
AcDbEntity
  8
0
  6
Continuous
 62
     7
370
    15
100
AcDbLine
 10
204.25884522
 20
160.2074056787
 30
0.0
 11
203.2864885727
 21
159.0483505202
 31
0.0
  0
LINE
  5
EF
330
1F
100
AcDbEntity
  8
0
  6
Continuous
 62
     7
370
    15
100
AcDbLine
 10
204.00203302
 20
160.4229509753
 30
0.0
 11
204.25884522
 21
160.2074056787
 31
0.0
  0
LINE
  5
F0
330
1F
100
AcDbEntity
  8
0
  6
Continuous
 62
     7
370
    15
100
AcDbLine
 10
200.7833114217
 20
156.0652321127
 30
0.0
 11
199.7580705533
 21
157.9366270376
 31
0.0
  0
LINE
  5
F1
330
1F
100
AcDbEntity
  8
0
  6
Continuous
 62
     7
370
    15
100
AcDbLine
 10
201.0569488952
 20
156.3913533387
 30
0.0
 11
200.7833114217
 21
156.0652321127
 31
0.0
  0
LINE
  5
F2
330
1F
100
AcDbEntity
  8
0
  6
Continuous
 62
     7
370
    15
100
AcDbLine
 10
200.8161628942
 20
156.8076200706
 30
0.0
 11
201.0569488952
 21
156.3913533387
 31
0.0
  0
LINE
  5
F3
330
1F
100
AcDbEntity
  8
0
  6
Continuous
 62
     7
370
    15
100
AcDbLine
 10
201.3273826192
 20
157.4165932757
 30
0.0
 11
200.8161628942
 21
156.8076200706
 31
0.0
  0
LINE
  5
F4
330
1F
100
AcDbEntity
  8
0
  6
Continuous
 62
     7
370
    15
100
AcDbLine
 10
201.7849134604
 20
157.2591420186
 30
0.0
 11
201.3273826192
 21
157.4165932757
 31
0.0
  0
LINE
  5
F5
330
1F
100
AcDbEntity
  8
0
  6
Continuous
 62
     7
370
    15
100
AcDbLine
 10
202.065763096
 20
157.5936768127
 30
0.0
 11
201.7849134604
 21
157.2591420186
 31
0.0
  0
LINE
  5
F6
330
1F
100
AcDbEntity
  8
0
  6
Continuous
 62
     7
370
    15
100
AcDbLine
 10
200.0309070895
 20
158.2619473261
 30
0.0
 11
202.065763096
 21
157.5936768127
 31
0.0
  0
LINE
  5
F7
330
1F
100
AcDbEntity
  8
0
  6
Continuous
 62
     7
370
    15
100
AcDbLine
 10
199.7580705533
 20
157.9366270376
 30
0.0
 11
200.0309070895
 21
158.2619473261
 31
0.0
  0
LINE
  5
F8
330
1F
100
AcDbEntity
  8
0
  6
Continuous
 62
     7
370
    15
100
AcDbLine
 10
198.1526008199
 20
153.4516466704
 30
0.0
 11
198.7944273601
 21
154.2164701891
 31
0.0
  0
LINE
  5
F9
330
1F
100
AcDbEntity
  8
0
  6
Continuous
 62
     7
370
    15
100
AcDbLine
 10
196.8985954622
 20
154.5037291867
 30
0.0
 11
198.1526008199
 21
153.4516466704
 31
0.0
  0
LINE
  5
FA
330
1F
100
AcDbEntity
  8
0
  6
Continuous
 62
     7
370
    15
100
AcDbLine
 10
196.6405818562
 20
154.1960369719
 30
0.0
 11
196.8985954622
 21
154.5037291867
 31
0.0
  0
LINE
  5
FB
330
1F
100
AcDbEntity
  8
0
  6
Continuous
 62
     7
370
    15
100
AcDbLine
 10
198.1513994137
 20
152.9284091589
 30
0.0
 11
196.6405818562
 21
154.1960369719
 31
0.0
  0
LINE
  5
FC
330
1F
100
AcDbEntity
  8
0
  6
Continuous
 62
     7
370
    15
100
AcDbLine
 10
199.05123956
 20
154.0009248925
 30
0.0
 11
198.1513994137
 21
152.9284091589
 31
0.0
  0
LINE
  5
FD
330
1F
100
AcDbEntity
  8
0
  6
Continuous
 62
     7
370
    15
100
AcDbLine
 10
198.7944273601
 20
154.2164701891
 30
0.0
 11
199.05123956
 21
154.0009248925
 31
0.0
  0
LINE
  5
FE
330
1F
100
AcDbEntity
  8
0
  6
Continuous
 62
     7
370
    15
100
AcDbLine
 10
196.2865228156
 20
153.2767787499
 30
0.0
 11
195.9083164434
 21
152.8256563393
 31
0.0
  0
LINE
  5
FF
330
1F
100
AcDbEntity
  8
0
  6
Continuous
 62
     7
370
    15
100
AcDbLine
 10
196.0289096782
 20
153.4927245152
 30
0.0
 11
196.2865228156
 21
153.2767787499
 31
0.0
  0
LINE
  5
100
330
1F
100
AcDbEntity
  8
0
  6
Continuous
 62
     7
370
    15
100
AcDbLine
 10
195.0132856468
 20
152.2819865418
 30
0.0
 11
196.0289096782
 21
153.4927245152
 31
0.0
  0
LINE
  5
101
330
1F
100
AcDbEntity
  8
0
  6
Continuous
 62
     7
370
    15
100
AcDbLine
 10
195.2708969215
 20
152.0660417077
 30
0.0
 11
195.0132856468
 21
152.2819865418
 31
0.0
  0
LINE
  5
102
330
1F
100
AcDbEntity
  8
0
  6
Continuous
 62
     7
370
    15
100
AcDbLine
 10
195.6499042312
 20
152.5179641244
 30
0.0
 11
195.2708969215
 21
152.0660417077
 31
0.0
  0
LINE
  5
103
330
1F
100
AcDbEntity
  8
0
  6
Continuous
 62
     7
370
    15
100
AcDbLine
 10
196.9155287693
 20
151.4558652339
 30
0.0
 11
195.6499042312
 21
152.5179641244
 31
0.0
  0
LINE
  5
104
330
1F
100
AcDbEntity
  8
0
  6
Continuous
 62
     7
370
    15
100
AcDbLine
 10
197.1739409814
 20
151.7635574487
 30
0.0
 11
196.9155287693
 21
151.4558652339
 31
0.0
  0
LINE
  5
105
330
1F
100
AcDbEntity
  8
0
  6
Continuous
 62
     7
370
    15
100
AcDbLine
 10
195.9083164434
 20
152.8256563393
 30
0.0
 11
197.1739409814
 21
151.7635574487
 31
0.0
  0
LINE
  5
106
330
1F
100
AcDbEntity
  8
0
  6
Continuous
 62
     7
370
    15
100
AcDbLine
 10
193.3169914732
 20
150.2603925688
 30
0.0
 11
193.5750050793
 21
150.5680847836
 31
0.0
  0
LINE
  5
107
330
1F
100
AcDbEntity
  8
0
  6
Continuous
 62
     7
370
    15
100
AcDbLine
 10
194.8402291487
 20
148.9823479128
 30
0.0
 11
193.3169914732
 21
150.2603925688
 31
0.0
  0
LINE
  5
108
330
1F
100
AcDbEntity
  8
0
  6
Continuous
 62
     7
370
    15
100
AcDbLine
 10
195.0982408921
 20
149.2900401277
 30
0.0
 11
194.8402291487
 21
148.9823479128
 31
0.0
  0
LINE
  5
109
330
1F
100
AcDbEntity
  8
0
  6
Continuous
 62
     7
370
    15
100
AcDbLine
 10
193.5750050793
 20
150.5680847836
 30
0.0
 11
195.0982408921
 21
149.2900401277
 31
0.0
  0
SPLINE
  5
10A
330
1F
100
AcDbEntity
  8
0
  6
Continuous
 62
     7
370
    15
100
AcDbSpline
210
0.0
220
0.0
230
1.0
 70
     8
 71
     3
 72
    14
 73
    10
 74
     0
 42
0.00000001
 43
0.00000001
 40
2.0
 40
2.0
 40
2.0
 40
2.0
 40
3.0
 40
3.0
 40
3.0
 40
4.0
 40
4.0
 40
4.0
 40
5.0
 40
5.0
 40
5.0
 40
5.0
 10
203.2197697397209
 20
168.4191566714964
 30
0.0
 10
203.204496839937
 20
168.4172917738913
 30
0.0
 10
203.1870443063418
 20
168.4060822018436
 30
0.0
 10
203.1768299870364
 20
168.3939790725278
 30
0.0
 10
202.9623256430298
 20
168.1398115530055
 30
0.0
 10
202.7487013568306
 20
167.8849031487851
 30
0.0
 10
202.5350220256813
 20
167.630040932762
 30
0.0
 10
202.5283478239292
 20
167.6220804169115
 30
0.0
 10
202.5229268300214
 20
167.6130683348212
 30
0.0
 10
202.5131306337528
 20
167.5991669627915
 30
0.0
  0
LINE
  5
10B
330
1F
100
AcDbEntity
  8
0
  6
Continuous
 62
     7
370
    15
100
AcDbLine
 10
202.5131313453
 20
167.5991676671
 30
0.0
 11
204.4562576661
 21
167.820259921
 31
0.0
  0
LINE
  5
10C
330
1F
100
AcDbEntity
  8
0
  6
Continuous
 62
     7
370
    15
100
AcDbLine
 10
204.4562576661
 20
167.820259921
 30
0.0
 11
204.4623429278
 21
168.5658208949
 31
0.0
  0
SPLINE
  5
10D
330
1F
100
AcDbEntity
  8
0
  6
Continuous
 62
     7
370
    15
100
AcDbSpline
210
0.0
220
0.0
230
1.0
 70
     8
 71
     3
 72
    11
 73
     7
 74
     0
 42
0.00000001
 43
0.00000001
 40
0.0
 40
0.0
 40
0.0
 40
0.0
 40
1.0
 40
1.0
 40
1.0
 40
2.0
 40
2.0
 40
2.0
 40
2.0
 10
204.4623429080813
 20
168.5658216506995
 30
0.0
 10
204.4476865631898
 20
168.5653919293693
 30
0.0
 10
204.4401264631647
 20
168.5657517418811
 30
0.0
 10
204.4327144680014
 20
168.5648677335562
 30
0.0
 10
204.0283569322677
 20
168.5166456163764
 30
0.0
 10
203.6239856175311
 20
168.4685394873617
 30
0.0
 10
203.2197697397209
 20
168.4191566714964
 30
0.0
  0
SPLINE
  5
10E
330
1F
100
AcDbEntity
  8
0
  6
Continuous
 62
     7
370
    15
100
AcDbSpline
210
0.0
220
0.0
230
1.0
 70
     8
 71
     3
 72
    14
 73
    10
 74
     0
 42
0.00000001
 43
0.00000001
 40
1.0
 40
1.0
 40
1.0
 40
1.0
 40
2.0
 40
2.0
 40
2.0
 40
3.0
 40
3.0
 40
3.0
 40
4.0
 40
4.0
 40
4.0
 40
4.0
 10
206.1738492341792
 20
168.0171063912858
 30
0.0
 10
206.1898518705281
 20
168.0190316662761
 30
0.0
 10
206.2074424951235
 20
168.033083299301
 30
0.0
 10
206.218592116718
 20
168.046300716706
 30
0.0
 10
206.4370367489375
 20
168.3052610443356
 30
0.0
 10
206.6546476906508
 20
168.5649209213615
 30
0.0
 10
206.8723396344457
 20
168.8245152580871
 30
0.0
 10
206.8800258485257
 20
168.8336811197169
 30
0.0
 10
206.886781235184
 20
168.8436304668093
 30
0.0
 10
206.8985678053601
 20
168.8593442094737
 30
0.0
  0
LINE
  5
10F
330
1F
100
AcDbEntity
  8
0
  6
Continuous
 62
     7
370
    15
100
AcDbLine
 10
206.8985682304
 20
168.8593439681
 30
0.0
 11
205.3972343306
 21
168.6801779938
 31
0.0
  0
LINE
  5
110
330
1F
100
AcDbEntity
  8
0
  6
Continuous
 62
     7
370
    15
100
AcDbLine
 10
205.3972343306
 20
168.6801779938
 30
0.0
 11
205.3742790917
 21
167.9244097245
 31
0.0
  0
SPLINE
  5
111
330
1F
100
AcDbEntity
  8
0
  6
Continuous
 62
     7
370
    15
100
AcDbSpline
210
0.0
220
0.0
230
1.0
 70
     8
 71
     3
 72
     8
 73
     4
 74
     0
 42
0.00000001
 43
0.00000001
 40
0.0
 40
0.0
 40
0.0
 40
0.0
 40
1.0
 40
1.0
 40
1.0
 40
1.0
 10
205.3742798695045
 20
167.924409310781
 30
0.0
 10
205.6424886000778
 20
167.9551511057494
 30
0.0
 10
205.9082819112333
 20
167.9851900257258
 30
0.0
 10
206.1738492341792
 20
168.0171063912858
 30
0.0
  0
LINE
  5
112
330
1F
100
AcDbEntity
  8
0
  6
Continuous
 62
     7
370
    15
100
AcDbLine
 10
203.601994584
 20
164.8694425744
 30
0.0
 11
203.0093325625
 21
164.1631331218
 31
0.0
  0
SPLINE
  5
113
330
1F
100
AcDbEntity
  8
0
  6
Continuous
 62
     7
370
    15
100
AcDbSpline
210
0.0
220
0.0
230
1.0
 70
     8
 71
     3
 72
    11
 73
     7
 74
     0
 42
0.00000001
 43
0.00000001
 40
16.0
 40
16.0
 40
16.0
 40
16.0
 40
17.0
 40
17.0
 40
17.0
 40
18.0
 40
18.0
 40
18.0
 40
18.0
 10
204.0611821139225
 20
165.5166415483387
 30
0.0
 10
203.9888424060478
 20
165.3851319759175
 30
0.0
 10
203.8973571657075
 20
165.2637958317226
 30
0.0
 10
203.8101701928943
 20
165.1409269659135
 30
0.0
 10
203.7442219717569
 20
165.0479885911453
 30
0.0
 10
203.6716305323282
 20
164.9597648435579
 30
0.0
 10
203.6019951152301
 20
164.869441975812
 30
0.0
  0
SPLINE
  5
114
330
1F
100
AcDbEntity
  8
0
  6
Continuous
 62
     7
370
    15
100
AcDbSpline
210
0.0
220
0.0
230
1.0
 70
     8
 71
     3
 72
     8
 73
     4
 74
     0
 42
0.00000001
 43
0.00000001
 40
15.0
 40
15.0
 40
15.0
 40
15.0
 40
16.0
 40
16.0
 40
16.0
 40
16.0
 10
204.0730152021735
 20
166.0413090288006
 30
0.0
 10
204.169653367731
 20
165.8670086598123
 30
0.0
 10
204.1539152882879
 20
165.6852264589859
 30
0.0
 10
204.0611821139225
 20
165.5166415483387
 30
0.0
  0
SPLINE
  5
115
330
1F
100
AcDbEntity
  8
0
  6
Continuous
 62
     7
370
    15
100
AcDbSpline
210
0.0
220
0.0
230
1.0
 70
     8
 71
     3
 72
     8
 73
     4
 74
     0
 42
0.00000001
 43
0.00000001
 40
14.0
 40
14.0
 40
14.0
 40
14.0
 40
15.0
 40
15.0
 40
15.0
 40
15.0
 10
203.9069629968265
 20
166.2621201012961
 30
0.0
 10
203.9710577739995
 20
166.1968294577646
 30
0.0
 10
204.028698382187
 20
166.1212444318761
 30
0.0
 10
204.0730152021735
 20
166.0413090288006
 30
0.0
  0
SPLINE
  5
116
330
1F
100
AcDbEntity
  8
0
  6
Continuous
 62
     7
370
    15
100
AcDbSpline
210
0.0
220
0.0
230
1.0
 70
     8
 71
     3
 72
     8
 73
     4
 74
     0
 42
0.00000001
 43
0.00000001
 40
13.0
 40
13.0
 40
13.0
 40
13.0
 40
14.0
 40
14.0
 40
14.0
 40
14.0
 10
203.5116675939574
 20
166.6355828116737
 30
0.0
 10
203.6477430757355
 20
166.5159183348675
 30
0.0
 10
203.7800463720704
 20
166.3914074215757
 30
0.0
 10
203.9069629968265
 20
166.2621201012961
 30
0.0
  0
SPLINE
  5
117
330
1F
100
AcDbEntity
  8
0
  6
Continuous
 62
     7
370
    15
100
AcDbSpline
210
0.0
220
0.0
230
1.0
 70
     8
 71
     3
 72
     8
 73
     4
 74
     0
 42
0.00000001
 43
0.00000001
 40
12.0
 40
12.0
 40
12.0
 40
12.0
 40
13.0
 40
13.0
 40
13.0
 40
13.0
 10
202.8617709338777
 20
167.1314614066837
 30
0.0
 10
203.094734426802
 20
166.9876679421459
 30
0.0
 10
203.3067423342141
 20
166.8157900490918
 30
0.0
 10
203.5116675939574
 20
166.6355828116737
 30
0.0
  0
SPLINE
  5
118
330
1F
100
AcDbEntity
  8
0
  6
Continuous
 62
     7
370
    15
100
AcDbSpline
210
0.0
220
0.0
230
1.0
 70
     8
 71
     3
 72
     8
 73
     4
 74
     0
 42
0.00000001
 43
0.00000001
 40
11.0
 40
11.0
 40
11.0
 40
11.0
 40
12.0
 40
12.0
 40
12.0
 40
12.0
 10
202.5449225254439
 20
167.2521885013264
 30
0.0
 10
202.6621597348988
 20
167.2424556539904
 30
0.0
 10
202.7640226832607
 20
167.1917928469542
 30
0.0
 10
202.8617709338777
 20
167.1314614066837
 30
0.0
  0
SPLINE
  5
119
330
1F
100
AcDbEntity
  8
0
  6
Continuous
 62
     7
370
    15
100
AcDbSpline
210
0.0
220
0.0
230
1.0
 70
     8
 71
     3
 72
    20
 73
    16
 74
     0
 42
0.00000001
 43
0.00000001
 40
6.0
 40
6.0
 40
6.0
 40
6.0
 40
7.0
 40
7.0
 40
7.0
 40
8.0
 40
8.0
 40
8.0
 40
9.0
 40
9.0
 40
9.0
 40
10.0
 40
10.0
 40
10.0
 40
11.0
 40
11.0
 40
11.0
 40
11.0
 10
200.4695737318167
 20
164.8456654592626
 30
0.0
 10
200.4462921250586
 20
165.0016302462705
 30
0.0
 10
200.4871958496132
 20
165.1457504807205
 30
0.0
 10
200.5713880886961
 20
165.2731211815035
 30
0.0
 10
200.6761436876894
 20
165.4316010804642
 30
0.0
 10
200.7876331254519
 20
165.5864681431322
 30
0.0
 10
200.9066637012511
 20
165.7344925941592
 30
0.0
 10
201.1277462401622
 20
166.0094266152489
 30
0.0
 10
201.3536514269114
 20
166.2806150903611
 30
0.0
 10
201.582843300432
 20
166.5488417124305
 30
0.0
 10
201.7417773261581
 20
166.7348447195701
 30
0.0
 10
201.9020335755613
 20
166.9206732281583
 30
0.0
 10
202.0872998476287
 20
167.0818366334713
 30
0.0
 10
202.2176735430772
 20
167.195249216095
 30
0.0
 10
202.365724298644
 20
167.2670594468262
 30
0.0
 10
202.5449225254439
 20
167.2521885013264
 30
0.0
  0
SPLINE
  5
11A
330
1F
100
AcDbEntity
  8
0
  6
Continuous
 62
     7
370
    15
100
AcDbSpline
210
0.0
220
0.0
230
1.0
 70
     8
 71
     3
 72
    14
 73
    10
 74
     0
 42
0.00000001
 43
0.00000001
 40
3.0
 40
3.0
 40
3.0
 40
3.0
 40
4.0
 40
4.0
 40
4.0
 40
5.0
 40
5.0
 40
5.0
 40
6.0
 40
6.0
 40
6.0
 40
6.0
 10
201.7644257337086
 20
163.5762713307502
 30
0.0
 10
201.5180453342638
 20
163.7253706226844
 30
0.0
 10
201.2944469771808
 20
163.9050045309094
 30
0.0
 10
201.0791398954264
 20
164.0944671390417
 30
0.0
 10
200.9346184922744
 20
164.2216411472268
 30
0.0
 10
200.7966747506759
 20
164.3567546804148
 30
0.0
 10
200.6615650895251
 20
164.4940023213824
 30
0.0
 10
200.5654559480168
 20
164.5916325109044
 30
0.0
 10
200.4905508060278
 20
164.7051442418977
 30
0.0
 10
200.4695737318167
 20
164.8456654592626
 30
0.0
  0
SPLINE
  5
11B
330
1F
100
AcDbEntity
  8
0
  6
Continuous
 62
     7
370
    15
100
AcDbSpline
210
0.0
220
0.0
230
1.0
 70
     8
 71
     3
 72
     8
 73
     4
 74
     0
 42
0.00000001
 43
0.00000001
 40
2.0
 40
2.0
 40
2.0
 40
2.0
 40
3.0
 40
3.0
 40
3.0
 40
3.0
 10
202.4879024282372
 20
163.6261937262252
 30
0.0
 10
202.259623528564
 20
163.4312052111308
 30
0.0
 10
202.0209711969953
 20
163.4210224836553
 30
0.0
 10
201.7644257337086
 20
163.5762713307502
 30
0.0
  0
SPLINE
  5
11C
330
1F
100
AcDbEntity
  8
0
  6
Continuous
 62
     7
370
    15
100
AcDbSpline
210
0.0
220
0.0
230
1.0
 70
     8
 71
     3
 72
    11
 73
     7
 74
     0
 42
0.00000001
 43
0.00000001
 40
0.0
 40
0.0
 40
0.0
 40
0.0
 40
1.0
 40
1.0
 40
1.0
 40
2.0
 40
2.0
 40
2.0
 40
2.0
 10
203.0093320834956
 20
164.1631336785437
 30
0.0
 10
202.9549506968447
 20
164.103000758378
 30
0.0
 10
202.9023706530675
 20
164.0411110519059
 30
0.0
 10
202.845812579107
 20
163.9831008682706
 30
0.0
 10
202.7281565926014
 20
163.8624240693988
 30
0.0
 10
202.6156442453978
 20
163.735306292757
 30
0.0
 10
202.4879024282372
 20
163.6261937262252
 30
0.0
  0
LINE
  5
11D
330
1F
100
AcDbEntity
  8
0
  6
Continuous
 62
     7
370
    15
100
AcDbLine
 10
201.5394410441
 20
163.4854040963
 30
0.0
 11
200.3728589366
 21
162.0951257569
 31
0.0
  0
LINE
  5
11E
330
1F
100
AcDbEntity
  8
0
  6
Continuous
 62
     7
370
    15
100
AcDbLine
 10
200.3728589366
 20
162.0951257569
 30
0.0
 11
198.9186173628
 21
163.3153799844
 31
0.0
  0
LINE
  5
11F
330
1F
100
AcDbEntity
  8
0
  6
Continuous
 62
     7
370
    15
100
AcDbLine
 10
198.9186173628
 20
163.3153799844
 30
0.0
 11
198.3928429286
 21
162.6887880189
 31
0.0
  0
LINE
  5
120
330
1F
100
AcDbEntity
  8
0
  6
Continuous
 62
     7
370
    15
100
AcDbLine
 10
198.3928429286
 20
162.6887880189
 30
0.0
 11
200.3465025077
 21
161.0494721604
 31
0.0
  0
LINE
  5
121
330
1F
100
AcDbEntity
  8
0
  6
Continuous
 62
     7
370
    15
100
AcDbLine
 10
200.3465025077
 20
161.0494721604
 30
0.0
 11
202.0388571868
 21
163.0663424653
 31
0.0
  0
LINE
  5
122
330
1F
100
AcDbEntity
  8
0
  6
Continuous
 62
     7
370
    15
100
AcDbLine
 10
202.0388571868
 20
163.0663424653
 30
0.0
 11
201.5394410441
 21
163.4854040963
 31
0.0
  0
SPLINE
  5
123
330
1F
100
AcDbEntity
  8
0
  6
Continuous
 62
     7
370
    15
100
AcDbSpline
210
0.0
220
0.0
230
1.0
 70
     8
 71
     3
 72
     8
 73
     4
 74
     0
 42
0.00000001
 43
0.00000001
 40
4.0
 40
4.0
 40
4.0
 40
4.0
 40
5.0
 40
5.0
 40
5.0
 40
5.0
 10
199.3778763694442
 20
161.4663074140578
 30
0.0
 10
199.3526957384027
 20
161.5100119615667
 30
0.0
 10
199.3232408980168
 20
161.5518801192383
 30
0.0
 10
199.2912893128149
 20
161.5909449768042
 30
0.0
  0
SPLINE
  5
124
330
1F
100
AcDbEntity
  8
0
  6
Continuous
 62
     7
370
    15
100
AcDbSpline
210
0.0
220
0.0
230
1.0
 70
     8
 71
     3
 72
     8
 73
     4
 74
     0
 42
0.00000001
 43
0.00000001
 40
5.0
 40
5.0
 40
5.0
 40
5.0
 40
6.0
 40
6.0
 40
6.0
 40
6.0
 10
199.2912893128149
 20
161.5909449768042
 30
0.0
 10
199.1693633825429
 20
161.7400189219704
 30
0.0
 10
199.0274912683608
 20
161.8687620412567
 30
0.0
 10
198.8728406148812
 20
161.9825266381431
 30
0.0
  0
SPLINE
  5
125
330
1F
100
AcDbEntity
  8
0
  6
Continuous
 62
     7
370
    15
100
AcDbSpline
210
0.0
220
0.0
230
1.0
 70
     8
 71
     3
 72
     8
 73
     4
 74
     0
 42
0.00000001
 43
0.00000001
 40
6.0
 40
6.0
 40
6.0
 40
6.0
 40
7.0
 40
7.0
 40
7.0
 40
7.0
 10
198.8728406148812
 20
161.9825266381431
 30
0.0
 10
198.782195686742
 20
162.049207833229
 30
0.0
 10
198.6879043388498
 20
162.1119898237833
 30
0.0
 10
198.59034930361
 20
162.1679808744813
 30
0.0
  0
SPLINE
  5
126
330
1F
100
AcDbEntity
  8
0
  6
Continuous
 62
     7
370
    15
100
AcDbSpline
210
0.0
220
0.0
230
1.0
 70
     8
 71
     3
 72
    20
 73
    16
 74
     0
 42
0.00000001
 43
0.00000001
 40
7.0
 40
7.0
 40
7.0
 40
7.0
 40
8.0
 40
8.0
 40
8.0
 40
9.0
 40
9.0
 40
9.0
 40
10.0
 40
10.0
 40
10.0
 40
11.0
 40
11.0
 40
11.0
 40
12.0
 40
12.0
 40
12.0
 40
12.0
 10
198.59034930361
 20
162.1679808744813
 30
0.0
 10
198.4292864883436
 20
162.2604207323779
 30
0.0
 10
198.261944128177
 20
162.2753294843645
 30
0.0
 10
198.0931537240465
 20
162.1845111373624
 30
0.0
 10
198.0630847059225
 20
162.1683321904542
 30
0.0
 10
198.0334717960276
 20
162.1511075382975
 30
0.0
 10
198.0047644204882
 20
162.1326300637497
 30
0.0
 10
197.8434580902649
 20
162.0288048424155
 30
0.0
 10
197.719871845007
 20
161.8847779051384
 30
0.0
 10
197.5980098065126
 20
161.740707869133
 30
0.0
 10
197.1649646822359
 20
161.2287450323876
 30
0.0
 10
196.7348786143689
 20
160.7142786101099
 30
0.0
 10
196.3036726747689
 20
160.2007603715981
 30
0.0
 10
196.2949431014665
 20
160.1903644685105
 30
0.0
 10
196.2862204755849
 20
160.1799627358444
 30
0.0
 10
196.2764662457985
 20
160.1683380974534
 30
0.0
  0
LINE
  5
127
330
1F
100
AcDbEntity
  8
0
  6
Continuous
 62
     7
370
    15
100
AcDbLine
 10
196.2764663945
 20
160.1683385593
 30
0.0
 11
198.2284663568
 21
158.5304140968
 31
0.0
  0
LINE
  5
128
330
1F
100
AcDbEntity
  8
0
  6
Continuous
 62
     7
370
    15
100
AcDbLine
 10
198.2284663568
 20
158.5304140968
 30
0.0
 11
198.7256454627
 21
159.1229289693
 31
0.0
  0
LINE
  5
129
330
1F
100
AcDbEntity
  8
0
  6
Continuous
 62
     7
370
    15
100
AcDbLine
 10
198.7256454627
 20
159.1229289693
 30
0.0
 11
198.2484935174
 21
159.5233064068
 31
0.0
  0
SPLINE
  5
12A
330
1F
100
AcDbEntity
  8
0
  6
Continuous
 62
     7
370
    15
100
AcDbSpline
210
0.0
220
0.0
230
1.0
 70
     8
 71
     3
 72
    17
 73
    13
 74
     0
 42
0.00000001
 43
0.00000001
 40
0.0
 40
0.0
 40
0.0
 40
0.0
 40
1.0
 40
1.0
 40
1.0
 40
2.0
 40
2.0
 40
2.0
 40
3.0
 40
3.0
 40
3.0
 40
4.0
 40
4.0
 40
4.0
 40
4.0
 10
198.2484938255335
 20
159.523306283785
 30
0.0
 10
198.2612854150916
 20
159.5385507065959
 30
0.0
 10
198.271670356286
 20
159.5508336598408
 30
0.0
 10
198.2819569647539
 20
159.5631991240401
 30
0.0
 10
198.5547883253025
 20
159.8911665459219
 30
0.0
 10
198.8279733675751
 20
160.2188420506325
 30
0.0
 10
199.1002583000049
 20
160.5472631231143
 30
0.0
 10
199.2138299212777
 20
160.6842491770668
 30
0.0
 10
199.3192556572894
 20
160.8267529701418
 30
0.0
 10
199.3912049989577
 20
160.9913337865347
 30
0.0
 10
199.4614950587927
 20
161.1521195944798
 30
0.0
 10
199.4673873806051
 20
161.310958144267
 30
0.0
 10
199.3778763694442
 20
161.4663074140578
 30
0.0
  0
LINE
  5
12B
330
1F
100
AcDbEntity
  8
0
  6
Continuous
 62
     7
370
    15
100
AcDbLine
 10
195.5246748725
 20
159.2671591711
 30
0.0
 11
197.4736051957
 21
157.6318126095
 31
0.0
  0
LINE
  5
12C
330
1F
100
AcDbEntity
  8
0
  6
Continuous
 62
     7
370
    15
100
AcDbLine
 10
197.4736051957
 20
157.6318126095
 30
0.0
 11
197.9936315069
 21
158.2515556288
 31
0.0
  0
LINE
  5
12D
330
1F
100
AcDbEntity
  8
0
  6
Continuous
 62
     7
370
    15
100
AcDbLine
 10
197.9936315069
 20
158.2515556288
 30
0.0
 11
196.0447011838
 21
159.8869021905
 31
0.0
  0
LINE
  5
12E
330
1F
100
AcDbEntity
  8
0
  6
Continuous
 62
     7
370
    15
100
AcDbLine
 10
196.0447011838
 20
159.8869021905
 30
0.0
 11
195.5246748725
 21
159.2671591711
 31
0.0
  0
LINE
  5
12F
330
1F
100
AcDbEntity
  8
0
  6
Continuous
 62
     7
370
    15
100
AcDbLine
 10
195.2554928462
 20
154.9867680219
 30
0.0
 11
195.7531543771
 21
155.5798556579
 31
0.0
  0
LINE
  5
130
330
1F
100
AcDbEntity
  8
0
  6
Continuous
 62
     7
370
    15
100
AcDbLine
 10
195.7531543771
 20
155.5798556579
 30
0.0
 11
195.2581992696
 21
155.9951715094
 31
0.0
  0
SPLINE
  5
131
330
1F
100
AcDbEntity
  8
0
  6
Continuous
 62
     7
370
    15
100
AcDbSpline
210
0.0
220
0.0
230
1.0
 70
     8
 71
     3
 72
    14
 73
    10
 74
     0
 42
0.00000001
 43
0.00000001
 40
3.0
 40
3.0
 40
3.0
 40
3.0
 40
4.0
 40
4.0
 40
4.0
 40
5.0
 40
5.0
 40
5.0
 40
6.0
 40
6.0
 40
6.0
 40
6.0
 10
195.2581994017793
 20
155.9951716667396
 30
0.0
 10
195.2687479489785
 20
156.007742935761
 30
0.0
 10
195.2759829040803
 20
156.0163652194959
 30
0.0
 10
195.2832175602294
 20
156.0249871469528
 30
0.0
 10
195.5346039692456
 20
156.3245734617377
 30
0.0
 10
195.785704884938
 20
156.6244005481235
 30
0.0
 10
196.0376801518267
 20
156.9234897168392
 30
0.0
 10
196.0760464044316
 20
156.9690297784925
 30
0.0
 10
196.1173072578719
 20
157.0123049065155
 30
0.0
 10
196.1592641553956
 20
157.0546086358248
 30
0.0
  0
SPLINE
  5
132
330
1F
100
AcDbEntity
  8
0
  6
Continuous
 62
     7
370
    15
100
AcDbSpline
210
0.0
220
0.0
230
1.0
 70
     8
 71
     3
 72
     8
 73
     4
 74
     0
 42
0.00000001
 43
0.00000001
 40
6.0
 40
6.0
 40
6.0
 40
6.0
 40
7.0
 40
7.0
 40
7.0
 40
7.0
 10
196.1592641553956
 20
157.0546086358248
 30
0.0
 10
196.2372276034088
 20
157.1332151342957
 30
0.0
 10
196.3156821573078
 20
157.1480009804504
 30
0.0
 10
196.4142232569575
 20
157.0947815849077
 30
0.0
  0
SPLINE
  5
133
330
1F
100
AcDbEntity
  8
0
  6
Continuous
 62
     7
370
    15
100
AcDbSpline
210
0.0
220
0.0
230
1.0
 70
     8
 71
     3
 72
     8
 73
     4
 74
     0
 42
0.00000001
 43
0.00000001
 40
7.0
 40
7.0
 40
7.0
 40
7.0
 40
8.0
 40
8.0
 40
8.0
 40
8.0
 10
196.4142232569575
 20
157.0947815849077
 30
0.0
 10
196.476269384837
 20
157.0612725678701
 30
0.0
 10
196.5342736782809
 20
157.0191581811572
 30
0.0
 10
196.5903887933204
 20
156.9760802752906
 30
0.0
  0
SPLINE
  5
134
330
1F
100
AcDbEntity
  8
0
  6
Continuous
 62
     7
370
    15
100
AcDbSpline
210
0.0
220
0.0
230
1.0
 70
     8
 71
     3
 72
     8
 73
     4
 74
     0
 42
0.00000001
 43
0.00000001
 40
8.0
 40
8.0
 40
8.0
 40
8.0
 40
9.0
 40
9.0
 40
9.0
 40
9.0
 10
196.5903887933204
 20
156.9760802752906
 30
0.0
 10
196.6575283868938
 20
156.9245385728949
 30
0.0
 10
196.7207187607989
 20
156.8678533505906
 30
0.0
 10
196.7869469208417
 20
156.8122813259253
 30
0.0
  0
LINE
  5
135
330
1F
100
AcDbEntity
  8
0
  6
Continuous
 62
     7
370
    15
100
AcDbLine
 10
196.7869466493
 20
156.8122804088
 30
0.0
 11
197.2779753009
 21
157.3974676353
 31
0.0
  0
SPLINE
  5
136
330
1F
100
AcDbEntity
  8
0
  6
Continuous
 62
     7
370
    15
100
AcDbSpline
210
0.0
220
0.0
230
1.0
 70
     8
 71
     3
 72
    17
 73
    13
 74
     0
 42
0.00000001
 43
0.00000001
 40
10.0
 40
10.0
 40
10.0
 40
10.0
 40
11.0
 40
11.0
 40
11.0
 40
12.0
 40
12.0
 40
12.0
 40
13.0
 40
13.0
 40
13.0
 40
14.0
 40
14.0
 40
14.0
 40
14.0
 10
197.2779761876016
 20
157.3974672186561
 30
0.0
 10
197.2742173430901
 20
157.4023430818906
 30
0.0
 10
197.2724475158999
 20
157.4058413834031
 30
0.0
 10
197.269664410325
 20
157.4080771170885
 30
0.0
 10
197.1094592775129
 20
157.5367896713849
 30
0.0
 10
196.9520520967984
 20
157.6692208992997
 30
0.0
 10
196.7880210225936
 20
157.7928637726357
 30
0.0
 10
196.6450805693352
 20
157.9006090444331
 30
0.0
 10
196.4763084659334
 20
157.8923606873066
 30
0.0
 10
196.3342777207242
 20
157.7826958816188
 30
0.0
 10
196.3085859833413
 20
157.7628585311541
 30
0.0
 10
196.284659729502
 20
157.7407347108829
 30
0.0
 10
196.2599181437961
 20
157.7196665983031
 30
0.0
  0
SPLINE
  5
137
330
1F
100
AcDbEntity
  8
0
  6
Continuous
 62
     7
370
    15
100
AcDbSpline
210
0.0
220
0.0
230
1.0
 70
     8
 71
     3
 72
    11
 73
     7
 74
     0
 42
0.00000001
 43
0.00000001
 40
14.0
 40
14.0
 40
14.0
 40
14.0
 40
15.0
 40
15.0
 40
15.0
 40
16.0
 40
16.0
 40
16.0
 40
16.0
 10
196.2599181437961
 20
157.7196665983031
 30
0.0
 10
196.2631662771784
 20
157.7377024782513
 30
0.0
 10
196.27032300708
 20
157.7522449468507
 30
0.0
 10
196.2777134725731
 20
157.7666665720126
 30
0.0
 10
196.3859249299997
 20
157.9778281183386
 30
0.0
 10
196.3688510372998
 20
158.1353182909959
 30
0.0
 10
196.2091967122961
 20
158.3101597515203
 30
0.0
  0
SPLINE
  5
138
330
1F
100
AcDbEntity
  8
0
  6
Continuous
 62
     7
370
    15
100
AcDbSpline
210
0.0
220
0.0
230
1.0
 70
     8
 71
     3
 72
     8
 73
     4
 74
     0
 42
0.00000001
 43
0.00000001
 40
16.0
 40
16.0
 40
16.0
 40
16.0
 40
17.0
 40
17.0
 40
17.0
 40
17.0
 10
196.2091967122961
 20
158.3101597515203
 30
0.0
 10
196.0606246731427
 20
158.472865562815
 30
0.0
 10
195.8900297051094
 20
158.6109288525591
 30
0.0
 10
195.7047802281582
 20
158.7301162976682
 30
0.0
  0
SPLINE
  5
139
330
1F
100
AcDbEntity
  8
0
  6
Continuous
 62
     7
370
    15
100
AcDbSpline
210
0.0
220
0.0
230
1.0
 70
     8
 71
     3
 72
    17
 73
    13
 74
     0
 42
0.00000001
 43
0.00000001
 40
17.0
 40
17.0
 40
17.0
 40
17.0
 40
18.0
 40
18.0
 40
18.0
 40
19.0
 40
19.0
 40
19.0
 40
20.0
 40
20.0
 40
20.0
 40
21.0
 40
21.0
 40
21.0
 40
21.0
 10
195.7047802281582
 20
158.7301162976682
 30
0.0
 10
195.4896130352269
 20
158.8685513197066
 30
0.0
 10
195.2755138977105
 20
158.8666325774137
 30
0.0
 10
195.0601009780356
 20
158.6857344459772
 30
0.0
 10
194.9638100599051
 20
158.6048718484313
 30
0.0
 10
194.8827704617851
 20
158.504563809999
 30
0.0
 10
194.8011329317788
 20
158.4077469997907
 30
0.0
 10
194.3100206129008
 20
157.8253215923322
 30
0.0
 10
193.8207438709208
 20
157.241348060297
 30
0.0
 10
193.3308533316087
 20
156.6578926010225
 30
0.0
 10
193.3220997785992
 20
156.6474670347102
 30
0.0
 10
193.3133519833628
 20
156.6370360299234
 30
0.0
 10
193.3031995485353
 20
156.6249368292443
 30
0.0
  0
LINE
  5
13A
330
1F
100
AcDbEntity
  8
0
  6
Continuous
 62
     7
370
    15
100
AcDbLine
 10
193.3032004485
 20
156.624936491
 30
0.0
 11
195.2554928462
 21
154.9867680219
 31
0.0
  0
LINE
  5
13B
330
1F
100
AcDbEntity
  8
0
  6
Continuous
 62
     7
370
    15
100
AcDbLine
 10
193.8807918082
 20
153.3502777961
 30
0.0
 11
194.4046067397
 21
153.9745358673
 31
0.0
  0
SPLINE
  5
13C
330
1F
100
AcDbEntity
  8
0
  6
Continuous
 62
     7
370
    15
100
AcDbSpline
210
0.0
220
0.0
230
1.0
 70
     8
 71
     3
 72
    20
 73
    16
 74
     0
 42
0.00000001
 43
0.00000001
 40
6.0
 40
6.0
 40
6.0
 40
6.0
 40
7.0
 40
7.0
 40
7.0
 40
8.0
 40
8.0
 40
8.0
 40
9.0
 40
9.0
 40
9.0
 40
10.0
 40
10.0
 40
10.0
 40
11.0
 40
11.0
 40
11.0
 40
11.0
 10
194.4046064459739
 20
153.9745359373599
 30
0.0
 10
194.3893516911012
 20
153.9873361965473
 30
0.0
 10
194.3767412888257
 20
153.9979169733165
 30
0.0
 10
194.3641315417811
 20
154.0084978074109
 30
0.0
 10
193.9050270296622
 20
154.3937328413302
 30
0.0
 10
193.4459187519715
 20
154.77896374939
 30
0.0
 10
192.986824824012
 20
155.1642117587935
 30
0.0
 10
192.9491502136906
 20
155.1958263318062
 30
0.0
 10
192.9491178774161
 20
155.1959487844345
 30
0.0
 10
192.9813582814672
 20
155.2343789990464
 30
0.0
 10
193.2033327731421
 20
155.4989689071207
 30
0.0
 10
193.4253674184727
 20
155.7635089474137
 30
0.0
 10
193.6472640634059
 20
156.0281641766603
 30
0.0
 10
193.6574154540522
 20
156.0402715390609
 30
0.0
 10
193.6664315013819
 20
156.0533303533616
 30
0.0
 10
193.6749318027432
 20
156.064565838095
 30
0.0
  0
LINE
  5
13D
330
1F
100
AcDbEntity
  8
0
  6
Continuous
 62
     7
370
    15
100
AcDbLine
 10
193.6749322663
 20
156.0645662171
 30
0.0
 11
193.1821024368
 21
156.4780995173
 31
0.0
  0
LINE
  5
13E
330
1F
100
AcDbEntity
  8
0
  6
Continuous
 62
     7
370
    15
100
AcDbLine
 10
193.1821024368
 20
156.4780995173
 30
0.0
 11
191.2002610365
 21
154.1162338031
 31
0.0
  0
LINE
  5
13F
330
1F
100
AcDbEntity
  8
0
  6
Continuous
 62
     7
370
    15
100
AcDbLine
 10
191.2002610365
 20
154.1162338031
 30
0.0
 11
191.6948585162
 21
153.7012178374
 31
0.0
  0
SPLINE
  5
140
330
1F
100
AcDbEntity
  8
0
  6
Continuous
 62
     7
370
    15
100
AcDbSpline
210
0.0
220
0.0
230
1.0
 70
     8
 71
     3
 72
    20
 73
    16
 74
     0
 42
0.00000001
 43
0.00000001
 40
0.0
 40
0.0
 40
0.0
 40
0.0
 40
1.0
 40
1.0
 40
1.0
 40
2.0
 40
2.0
 40
2.0
 40
3.0
 40
3.0
 40
3.0
 40
4.0
 40
4.0
 40
4.0
 40
5.0
 40
5.0
 40
5.0
 40
5.0
 10
191.6948589388444
 20
153.701217727536
 30
0.0
 10
191.7078808714837
 20
153.7167366625414
 30
0.0
 10
191.7183977296932
 20
153.7292701660953
 30
0.0
 10
191.728914737379
 20
153.7418038477883
 30
0.0
 10
191.9476499609424
 20
154.0024819745231
 30
0.0
 10
192.1663826905599
 20
154.263162193927
 30
0.0
 10
192.3851221894592
 20
154.523836733229
 30
0.0
 10
192.4252138375186
 20
154.5716142899661
 30
0.0
 10
192.4252423872075
 20
154.5716219046471
 30
0.0
 10
192.4717385676395
 20
154.5326075839246
 30
0.0
 10
192.9279278658878
 20
154.1498278118257
 30
0.0
 10
193.3841116048479
 20
153.7670417761992
 30
0.0
 10
193.8402970167107
 20
153.3842573724864
 30
0.0
 10
193.853594380284
 20
153.3730995596164
 30
0.0
 10
193.8668910886266
 20
153.3619416894212
 30
0.0
 10
193.8807916308438
 20
153.3502777495736
 30
0.0
  0
LINE
  5
141
330
1F
100
AcDbEntity
  8
0
  6
Continuous
 62
     7
370
    15
100
AcDbLine
 10
190.6137420187
 20
150.362722568
 30
0.0
 11
190.4211128453
 21
150.5243582574
 31
0.0
  0
SPLINE
  5
142
330
1F
100
AcDbEntity
  8
0
  6
Continuous
 62
     7
370
    15
100
AcDbSpline
210
0.0
220
0.0
230
1.0
 70
     8
 71
     3
 72
    17
 73
    13
 74
     0
 42
0.00000001
 43
0.00000001
 40
40.0
 40
40.0
 40
40.0
 40
40.0
 40
41.0
 40
41.0
 40
41.0
 40
42.0
 40
42.0
 40
42.0
 40
43.0
 40
43.0
 40
43.0
 40
44.0
 40
44.0
 40
44.0
 40
44.0
 10
191.8033605190708
 20
150.8189905383137
 30
0.0
 10
191.7165729426109
 20
150.7249542364725
 30
0.0
 10
191.6317797612226
 20
150.6290171444971
 30
0.0
 10
191.5431913607493
 20
150.5367194350599
 30
0.0
 10
191.4509649998426
 20
150.4406310050859
 30
0.0
 10
191.3516818177781
 20
150.3523161882584
 30
0.0
 10
191.2353008571052
 20
150.2852891148477
 30
0.0
 10
191.0709513593039
 20
150.1906356719513
 30
0.0
 10
190.9067501266597
 20
150.1845374568098
 30
0.0
 10
190.7423088536155
 20
150.2848714839663
 30
0.0
 10
190.6995409807592
 20
150.3109664015471
 30
0.0
 10
190.6566020304664
 20
150.3367800173089
 30
0.0
 10
190.6137416929396
 20
150.3627227739843
 30
0.0
  0
SPLINE
  5
143
330
1F
100
AcDbEntity
  8
0
  6
Continuous
 62
     7
370
    15
100
AcDbSpline
210
0.0
220
0.0
230
1.0
 70
     8
 71
     3
 72
     8
 73
     4
 74
     0
 42
0.00000001
 43
0.00000001
 40
39.0
 40
39.0
 40
39.0
 40
39.0
 40
40.0
 40
40.0
 40
40.0
 40
40.0
 10
191.8271031458931
 20
150.8366721689257
 30
0.0
 10
191.8191278919828
 20
150.8308345742758
 30
0.0
 10
191.8099387130706
 20
150.8261174295576
 30
0.0
 10
191.8033605190708
 20
150.8189905383137
 30
0.0
  0
LINE
  5
144
330
1F
100
AcDbEntity
  8
0
  6
Continuous
 62
     7
370
    15
100
AcDbLine
 10
192.3707863639
 20
151.4846077112
 30
0.0
 11
191.8271025965
 21
150.8366726262
 31
0.0
  0
SPLINE
  5
145
330
1F
100
AcDbEntity
  8
0
  6
Continuous
 62
     7
370
    15
100
AcDbSpline
210
0.0
220
0.0
230
1.0
 70
     8
 71
     3
 72
    11
 73
     7
 74
     0
 42
0.00000001
 43
0.00000001
 40
36.0
 40
36.0
 40
36.0
 40
36.0
 40
37.0
 40
37.0
 40
37.0
 40
38.0
 40
38.0
 40
38.0
 40
38.0
 10
192.7541177468983
 20
152.0262884252273
 30
0.0
 10
192.6684480881261
 20
151.8682740408954
 30
0.0
 10
192.5576892697318
 20
151.7278713604119
 30
0.0
 10
192.4464819861521
 20
151.587730846625
 30
0.0
 10
192.4199950259121
 20
151.5543524280783
 30
0.0
 10
192.3959523305286
 20
151.5190341324215
 30
0.0
 10
192.3707857617818
 20
151.484607879643
 30
0.0
  0
SPLINE
  5
146
330
1F
100
AcDbEntity
  8
0
  6
Continuous
 62
     7
370
    15
100
AcDbSpline
210
0.0
220
0.0
230
1.0
 70
     8
 71
     3
 72
    11
 73
     7
 74
     0
 42
0.00000001
 43
0.00000001
 40
34.0
 40
34.0
 40
34.0
 40
34.0
 40
35.0
 40
35.0
 40
35.0
 40
36.0
 40
36.0
 40
36.0
 40
36.0
 10
192.3735605818566
 20
152.9625170962475
 30
0.0
 10
192.4935648664857
 20
152.8786763604086
 30
0.0
 10
192.5993170250825
 20
152.7781392979454
 30
0.0
 10
192.6928857419575
 20
152.6652814383627
 30
0.0
 10
192.8670253154135
 20
152.4552430396202
 30
0.0
 10
192.8849273208806
 20
152.267560629431
 30
0.0
 10
192.7541177468983
 20
152.0262884252273
 30
0.0
  0
SPLINE
  5
147
330
1F
100
AcDbEntity
  8
0
  6
Continuous
 62
     7
370
    15
100
AcDbSpline
210
0.0
220
0.0
230
1.0
 70
     8
 71
     3
 72
    11
 73
     7
 74
     0
 42
0.00000001
 43
0.00000001
 40
32.0
 40
32.0
 40
32.0
 40
32.0
 40
33.0
 40
33.0
 40
33.0
 40
34.0
 40
34.0
 40
34.0
 40
34.0
 10
191.6040144370997
 20
153.0061499961068
 30
0.0
 10
191.7562207992397
 20
153.1411330008945
 30
0.0
 10
191.9395522112504
 20
153.1943304078841
 30
0.0
 10
192.1371816016393
 20
153.1061147427487
 30
0.0
 10
192.2207596673402
 20
153.0688079439562
 30
0.0
 10
192.2980372184609
 20
153.0152809625905
 30
0.0
 10
192.3735605818566
 20
152.9625170962475
 30
0.0
  0
SPLINE
  5
148
330
1F
100
AcDbEntity
  8
0
  6
Continuous
 62
     7
370
    15
100
AcDbSpline
210
0.0
220
0.0
230
1.0
 70
     8
 71
     3
 72
    14
 73
    10
 74
     0
 42
0.00000001
 43
0.00000001
 40
29.0
 40
29.0
 40
29.0
 40
29.0
 40
30.0
 40
30.0
 40
30.0
 40
31.0
 40
31.0
 40
31.0
 40
32.0
 40
32.0
 40
32.0
 40
32.0
 10
190.3856257155755
 20
151.7258545606563
 30
0.0
 10
190.4628005745207
 20
151.7972531562382
 30
0.0
 10
190.5399986188271
 20
151.8693291294424
 30
0.0
 10
190.6102633627906
 20
151.947355338338
 30
0.0
 10
190.7843081745187
 20
152.1406259660523
 30
0.0
 10
190.9503381357396
 20
152.3412342933733
 30
0.0
 10
191.1273884075256
 20
152.5316416823123
 30
0.0
 10
191.2800008180526
 20
152.6957679836217
 30
0.0
 10
191.4365242978865
 20
152.8576121462184
 30
0.0
 10
191.6040144370997
 20
153.0061499961068
 30
0.0
  0
SPLINE
  5
149
330
1F
100
AcDbEntity
  8
0
  6
Continuous
 62
     7
370
    15
100
AcDbSpline
210
0.0
220
0.0
230
1.0
 70
     8
 71
     3
 72
    14
 73
    10
 74
     0
 42
0.00000001
 43
0.00000001
 40
26.0
 40
26.0
 40
26.0
 40
26.0
 40
27.0
 40
27.0
 40
27.0
 40
28.0
 40
28.0
 40
28.0
 40
29.0
 40
29.0
 40
29.0
 40
29.0
 10
190.1245513994327
 20
151.9501469521603
 30
0.0
 10
190.0899922011448
 20
151.8952467687217
 30
0.0
 10
190.092283784001
 20
151.837060791268
 30
0.0
 10
190.1353930794387
 20
151.7877923257593
 30
0.0
 10
190.1623555678869
 20
151.7569777121115
 30
0.0
 10
190.1950801913563
 20
151.7288209012663
 30
0.0
 10
190.2303237114552
 20
151.7081921509996
 30
0.0
 10
190.2837855275719
 20
151.6768999512047
 30
0.0
 10
190.3405366994689
 20
151.6841398718459
 30
0.0
 10
190.3856257155755
 20
151.7258545606563
 30
0.0
  0
SPLINE
  5
14A
330
1F
100
AcDbEntity
  8
0
  6
Continuous
 62
     7
370
    15
100
AcDbSpline
210
0.0
220
0.0
230
1.0
 70
     8
 71
     3
 72
    20
 73
    16
 74
     0
 42
0.00000001
 43
0.00000001
 40
21.0
 40
21.0
 40
21.0
 40
21.0
 40
22.0
 40
22.0
 40
22.0
 40
23.0
 40
23.0
 40
23.0
 40
24.0
 40
24.0
 40
24.0
 40
25.0
 40
25.0
 40
25.0
 40
26.0
 40
26.0
 40
26.0
 40
26.0
 10
191.1860059075797
 20
152.8634805863847
 30
0.0
 10
191.1574949081861
 20
152.882823669796
 30
0.0
 10
191.1306485120565
 20
152.901388042669
 30
0.0
 10
191.1034486419668
 20
152.9194193734658
 30
0.0
 10
191.0419457999639
 20
152.960191255623
 30
0.0
 10
190.9811334587719
 20
152.9537243479212
 30
0.0
 10
190.9285185434686
 20
152.906669960043
 30
0.0
 10
190.8682269469436
 20
152.8527500164408
 30
0.0
 10
190.8089696019656
 20
152.7966040848999
 30
0.0
 10
190.75642635273
 20
152.7352871422716
 30
0.0
 10
190.58627807645
 20
152.5367280769856
 30
0.0
 10
190.4182347132437
 20
152.336326129864
 30
0.0
 10
190.2520293470345
 20
152.1344531060297
 30
0.0
 10
190.2046963042076
 20
152.0769628010128
 30
0.0
 10
190.1643299129222
 20
152.0133391538351
 30
0.0
 10
190.1245513994327
 20
151.9501469521603
 30
0.0
  0
LINE
  5
14B
330
1F
100
AcDbEntity
  8
0
  6
Continuous
 62
     7
370
    15
100
AcDbLine
 10
191.664782385
 20
153.4340633002
 30
0.0
 11
191.1860062132
 21
152.863480143
 31
0.0
  0
SPLINE
  5
14C
330
1F
100
AcDbEntity
  8
0
  6
Continuous
 62
     7
370
    15
100
AcDbSpline
210
0.0
220
0.0
230
1.0
 70
     8
 71
     3
 72
    38
 73
    34
 74
     0
 42
0.00000001
 43
0.00000001
 40
9.0
 40
9.0
 40
9.0
 40
9.0
 40
10.0
 40
10.0
 40
10.0
 40
11.0
 40
11.0
 40
11.0
 40
12.0
 40
12.0
 40
12.0
 40
13.0
 40
13.0
 40
13.0
 40
14.0
 40
14.0
 40
14.0
 40
15.0
 40
15.0
 40
15.0
 40
16.0
 40
16.0
 40
16.0
 40
17.0
 40
17.0
 40
17.0
 40
18.0
 40
18.0
 40
18.0
 40
19.0
 40
19.0
 40
19.0
 40
20.0
 40
20.0
 40
20.0
 40
20.0
 10
190.818679667832
 20
151.2837849694652
 30
0.0
 10
190.733418197
 20
151.1877036614981
 30
0.0
 10
190.6453322872839
 20
151.0954903543754
 30
0.0
 10
190.5438000624551
 20
151.0163614250843
 30
0.0
 10
190.3702049549801
 20
150.8810710434571
 30
0.0
 10
190.1846132177379
 20
150.858413545084
 30
0.0
 10
189.9890577720648
 20
150.9610838866685
 30
0.0
 10
189.7804368960651
 20
151.070613814195
 30
0.0
 10
189.6055390878381
 20
151.2214309516835
 30
0.0
 10
189.4661634214912
 20
151.4116846419297
 30
0.0
 10
189.3204213599999
 20
151.6106288242848
 30
0.0
 10
189.326701666179
 20
151.8185952535831
 30
0.0
 10
189.4524171787986
 20
152.0204033901225
 30
0.0
 10
189.544011276289
 20
152.1674372919483
 30
0.0
 10
189.6471247846462
 20
152.3082997438109
 30
0.0
 10
189.7552719266706
 20
152.4437969968785
 30
0.0
 10
189.9476442760347
 20
152.6848197984972
 30
0.0
 10
190.1449874353915
 20
152.9220326853299
 30
0.0
 10
190.3455044024334
 20
153.1563438295595
 30
0.0
 10
190.4872032146766
 20
153.3219235621643
 30
0.0
 10
190.6327088708043
 20
153.4851465080941
 30
0.0
 10
190.8139222049073
 20
153.6106371160956
 30
0.0
 10
190.8378380701556
 20
153.6271989401667
 30
0.0
 10
190.8628148467653
 20
153.6422752638011
 30
0.0
 10
190.887694010927
 20
153.6573919056598
 30
0.0
 10
191.0546007497974
 20
153.7588036673098
 30
0.0
 10
191.2225820650958
 20
153.7511151464117
 30
0.0
 10
191.3836315724762
 20
153.6495242695704
 30
0.0
 10
191.4797402518815
 20
153.5888986842477
 30
0.0
 10
191.5667835733103
 20
153.5138969061939
 30
0.0
 10
191.6577674495349
 20
153.4451791252471
 30
0.0
 10
191.6604961545496
 20
153.4431180539902
 30
0.0
 10
191.6617141078656
 20
153.4390564778604
 30
0.0
 10
191.6647818491779
 20
153.4340635348329
 30
0.0
  0
SPLINE
  5
14D
330
1F
100
AcDbEntity
  8
0
  6
Continuous
 62
     7
370
    15
100
AcDbSpline
210
0.0
220
0.0
230
1.0
 70
     8
 71
     3
 72
     8
 73
     4
 74
     0
 42
0.00000001
 43
0.00000001
 40
8.0
 40
8.0
 40
8.0
 40
8.0
 40
9.0
 40
9.0
 40
9.0
 40
9.0
 10
191.3442637046944
 20
151.8654247710999
 30
0.0
 10
191.1684847775083
 20
151.6720718363065
 30
0.0
 10
190.992114782197
 20
151.4792271609238
 30
0.0
 10
190.818679667832
 20
151.2837849694652
 30
0.0
  0
SPLINE
  5
14E
330
1F
100
AcDbEntity
  8
0
  6
Continuous
 62
     7
370
    15
100
AcDbSpline
210
0.0
220
0.0
230
1.0
 70
     8
 71
     3
 72
    17
 73
    13
 74
     0
 42
0.00000001
 43
0.00000001
 40
4.0
 40
4.0
 40
4.0
 40
4.0
 40
5.0
 40
5.0
 40
5.0
 40
6.0
 40
6.0
 40
6.0
 40
7.0
 40
7.0
 40
7.0
 40
8.0
 40
8.0
 40
8.0
 40
8.0
 10
191.8984319443946
 20
151.8363412672592
 30
0.0
 10
191.9522053486755
 20
151.900250092757
 30
0.0
 10
192.0051936785835
 20
151.9657781521432
 30
0.0
 10
192.0501239183527
 20
152.0359525141302
 30
0.0
 10
192.1249864276126
 20
152.1528762904871
 30
0.0
 10
192.1021429725083
 20
152.2195973101913
 30
0.0
 10
191.9847702123533
 20
152.3114154365374
 30
0.0
 10
191.8843616540628
 20
152.3899627248376
 30
0.0
 10
191.8123444723632
 20
152.3750639838304
 30
0.0
 10
191.7171545776823
 20
152.2721248357234
 30
0.0
 10
191.5922837956109
 20
152.137088163101
 30
0.0
 10
191.4679843384578
 20
152.0015160842888
 30
0.0
 10
191.3442637046944
 20
151.8654247710999
 30
0.0
  0
SPLINE
  5
14F
330
1F
100
AcDbEntity
  8
0
  6
Continuous
 62
     7
370
    15
100
AcDbSpline
210
0.0
220
0.0
230
1.0
 70
     8
 71
     3
 72
    14
 73
    10
 74
     0
 42
0.00000001
 43
0.00000001
 40
1.0
 40
1.0
 40
1.0
 40
1.0
 40
2.0
 40
2.0
 40
2.0
 40
3.0
 40
3.0
 40
3.0
 40
4.0
 40
4.0
 40
4.0
 40
4.0
 10
190.9031876831542
 20
151.0988733860898
 30
0.0
 10
190.9297964873266
 20
151.0810460652695
 30
0.0
 10
190.9524488535335
 20
151.065171866541
 30
0.0
 10
190.9757757301197
 20
151.0503576540831
 30
0.0
 10
191.0998791174988
 20
150.9715438541421
 30
0.0
 10
191.1690234545317
 20
150.9853378445395
 30
0.0
 10
191.261134653133
 20
151.0886619867302
 30
0.0
 10
191.4790023244209
 20
151.3330505505216
 30
0.0
 10
191.6875840445981
 20
151.5857498960826
 30
0.0
 10
191.8984319443946
 20
151.8363412672592
 30
0.0
  0
LINE
  5
150
330
1F
100
AcDbEntity
  8
0
  6
Continuous
 62
     7
370
    15
100
AcDbLine
 10
190.4211128453
 20
150.5243582574
 30
0.0
 11
190.9031877617
 21
151.0988734585
 31
0.0
  0
LINE
  5
151
330
1F
100
AcDbEntity
  8
0
  6
Continuous
 62
     7
370
    15
100
AcDbLine
 10
204.4725707124
 20
171.8579716903
 30
0.0
 11
204.589317585
 21
171.7600114567
 31
0.0
  0
SPLINE
  5
152
330
1F
100
AcDbEntity
  8
0
  6
Continuous
 62
     7
370
    15
100
AcDbSpline
210
0.0
220
0.0
230
1.0
 70
     8
 71
     3
 72
     8
 73
     4
 74
     0
 42
0.00000001
 43
0.00000001
 40
40.0
 40
40.0
 40
40.0
 40
40.0
 40
41.0
 40
41.0
 40
41.0
 40
41.0
 10
204.4458513931206
 20
171.8694131099803
 30
0.0
 10
204.454470922209
 20
171.8650339731768
 30
0.0
 10
204.4636509464995
 20
171.8617582037414
 30
0.0
 10
204.4725715400007
 20
171.8579715676385
 30
0.0
  0
SPLINE
  5
153
330
1F
100
AcDbEntity
  8
0
  6
Continuous
 62
     7
370
    15
100
AcDbSpline
210
0.0
220
0.0
230
1.0
 70
     8
 71
     3
 72
     8
 73
     4
 74
     0
 42
0.00000001
 43
0.00000001
 40
39.0
 40
39.0
 40
39.0
 40
39.0
 40
40.0
 40
40.0
 40
40.0
 40
40.0
 10
204.2699328913282
 20
171.9581323065572
 30
0.0
 10
204.3309181313799
 20
171.9346617017217
 30
0.0
 10
204.387275680146
 20
171.8991941216104
 30
0.0
 10
204.4458513931206
 20
171.8694131099803
 30
0.0
  0
SPLINE
  5
154
330
1F
100
AcDbEntity
  8
0
  6
Continuous
 62
     7
370
    15
100
AcDbSpline
210
0.0
220
0.0
230
1.0
 70
     8
 71
     3
 72
     8
 73
     4
 74
     0
 42
0.00000001
 43
0.00000001
 40
38.0
 40
38.0
 40
38.0
 40
38.0
 40
39.0
 40
39.0
 40
39.0
 40
39.0
 10
203.6928752312145
 20
171.981736596288
 30
0.0
 10
203.8871393067351
 20
172.0260254212208
 30
0.0
 10
204.0809642082006
 20
172.0308696576073
 30
0.0
 10
204.2699328913282
 20
171.9581323065572
 30
0.0
  0
SPLINE
  5
155
330
1F
100
AcDbEntity
  8
0
  6
Continuous
 62
     7
370
    15
100
AcDbSpline
210
0.0
220
0.0
230
1.0
 70
     8
 71
     3
 72
     8
 73
     4
 74
     0
 42
0.00000001
 43
0.00000001
 40
37.0
 40
37.0
 40
37.0
 40
37.0
 40
38.0
 40
38.0
 40
38.0
 40
38.0
 10
202.9745052423454
 20
171.6594525162182
 30
0.0
 10
203.1981211040345
 20
171.8018252064321
 30
0.0
 10
203.4320591034843
 20
171.9222744661072
 30
0.0
 10
203.6928752312145
 20
171.981736596288
 30
0.0
  0
SPLINE
  5
156
330
1F
100
AcDbEntity
  8
0
  6
Continuous
 62
     7
370
    15
100
AcDbSpline
210
0.0
220
0.0
230
1.0
 70
     8
 71
     3
 72
    38
 73
    34
 74
     0
 42
0.00000001
 43
0.00000001
 40
26.0
 40
26.0
 40
26.0
 40
26.0
 40
27.0
 40
27.0
 40
27.0
 40
28.0
 40
28.0
 40
28.0
 40
29.0
 40
29.0
 40
29.0
 40
30.0
 40
30.0
 40
30.0
 40
31.0
 40
31.0
 40
31.0
 40
32.0
 40
32.0
 40
32.0
 40
33.0
 40
33.0
 40
33.0
 40
34.0
 40
34.0
 40
34.0
 40
35.0
 40
35.0
 40
35.0
 40
36.0
 40
36.0
 40
36.0
 40
37.0
 40
37.0
 40
37.0
 40
37.0
 10
195.3581855125985
 20
159.9507001195234
 30
0.0
 10
195.3909297251424
 20
160.0284460110664
 30
0.0
 10
195.4231538206
 20
160.1064146232136
 30
0.0
 10
195.4564958027939
 20
160.1839029923711
 30
0.0
 10
195.8802566119389
 20
161.1687342019314
 30
0.0
 10
196.3310176527353
 20
162.1410789398723
 30
0.0
 10
196.8227687094117
 20
163.0937943508644
 30
0.0
 10
197.1237669335465
 20
163.6769461603518
 30
0.0
 10
197.4322420420181
 20
164.2564226315939
 30
0.0
 10
197.7479963937464
 20
164.8317108347892
 30
0.0
 10
197.9778015272532
 20
165.2504037408012
 30
0.0
 10
198.2210772691084
 20
165.6618879431182
 30
0.0
 10
198.4656454372235
 20
166.0722366721909
 30
0.0
 10
198.6739115674285
 20
166.4216759234726
 30
0.0
 10
198.8894942794348
 20
166.7668725050419
 30
0.0
 10
199.1076163257175
 20
167.1102783244652
 30
0.0
 10
199.2918322019382
 20
167.4003035070417
 30
0.0
 10
199.4808710427419
 20
167.6874255730822
 30
0.0
 10
199.6741827210008
 20
167.9714698627361
 30
0.0
 10
199.8532723678915
 20
168.2346167392403
 30
0.0
 10
200.0386256461651
 20
168.4935982088651
 30
0.0
 10
200.2254180982621
 20
168.7513720682654
 30
0.0
 10
200.3683066734262
 20
168.9485584300696
 30
0.0
 10
200.5131616177268
 20
169.1446655136317
 30
0.0
 10
200.6653191171822
 20
169.3347081672855
 30
0.0
 10
200.9048309492221
 20
169.6338552777184
 30
0.0
 10
201.1466066231815
 20
169.9314500770896
 30
0.0
 10
201.3960437147785
 20
170.2223126191855
 30
0.0
 10
201.6247657445212
 20
170.4890198160018
 30
0.0
 10
201.8694816390052
 20
170.7414395864256
 30
0.0
 10
202.1261504492589
 20
170.981966997488
 30
0.0
 10
202.3911143562999
 20
171.2302678054392
 30
0.0
 10
202.6675517282009
 20
171.4640210588496
 30
0.0
 10
202.9745052423454
 20
171.6594525162182
 30
0.0
  0
SPLINE
  5
157
330
1F
100
AcDbEntity
  8
0
  6
Continuous
 62
     7
370
    15
100
AcDbSpline
210
0.0
220
0.0
230
1.0
 70
     8
 71
     3
 72
    17
 73
    13
 74
     0
 42
0.00000001
 43
0.00000001
 40
22.0
 40
22.0
 40
22.0
 40
22.0
 40
23.0
 40
23.0
 40
23.0
 40
24.0
 40
24.0
 40
24.0
 40
25.0
 40
25.0
 40
25.0
 40
26.0
 40
26.0
 40
26.0
 40
26.0
 10
198.5817703740969
 20
165.5936819021963
 30
0.0
 10
198.2881568719098
 20
165.1269603011405
 30
0.0
 10
197.9977536467662
 20
164.6579893763192
 30
0.0
 10
197.7170291095316
 20
164.1834445818408
 30
0.0
 10
197.3596125001523
 20
163.5792573225751
 30
0.0
 10
197.0059492942572
 20
162.9726005684473
 30
0.0
 10
196.6641493813033
 20
162.3594924646246
 30
0.0
 10
196.2847452761763
 20
161.6789310500706
 30
0.0
 10
195.9203114361774
 20
160.9900191391623
 30
0.0
 10
195.5499163821432
 20
160.304442104182
 30
0.0
 10
195.4862200667353
 20
160.186544463752
 30
0.0
 10
195.4253012803525
 20
160.0671455381228
 30
0.0
 10
195.3581855125985
 20
159.9507001195234
 30
0.0
  0
SPLINE
  5
158
330
1F
100
AcDbEntity
  8
0
  6
Continuous
 62
     7
370
    15
100
AcDbSpline
210
0.0
220
0.0
230
1.0
 70
     8
 71
     3
 72
    23
 73
    19
 74
     0
 42
0.00000001
 43
0.00000001
 40
16.0
 40
16.0
 40
16.0
 40
16.0
 40
17.0
 40
17.0
 40
17.0
 40
18.0
 40
18.0
 40
18.0
 40
19.0
 40
19.0
 40
19.0
 40
20.0
 40
20.0
 40
20.0
 40
21.0
 40
21.0
 40
21.0
 40
22.0
 40
22.0
 40
22.0
 40
22.0
 10
202.1086358301842
 20
170.21735742335
 30
0.0
 10
201.8925453424868
 20
170.0190580312251
 30
0.0
 10
201.6860340731794
 20
169.8112296113574
 30
0.0
 10
201.4923591819569
 20
169.5911147970834
 30
0.0
 10
201.3045957159595
 20
169.3777184438828
 30
0.0
 10
201.1176526449978
 20
169.1634467017404
 30
0.0
 10
200.936214811285
 20
168.9446915139766
 30
0.0
 10
200.7880447306513
 20
168.7660465422697
 30
0.0
 10
200.6452566209267
 20
168.5826767083399
 30
0.0
 10
200.5059451765524
 20
168.3970040204688
 30
0.0
 10
200.306526050742
 20
168.131220333496
 30
0.0
 10
200.1095789287737
 20
167.8634716722531
 30
0.0
 10
199.9168897500329
 20
167.5927791581892
 30
0.0
 10
199.7205359348913
 20
167.3169386823431
 30
0.0
 10
199.5265037297437
 20
167.0392594276494
 30
0.0
 10
199.3388797679912
 20
166.7574415616962
 30
0.0
 10
199.0824203148725
 20
166.3722296054137
 30
0.0
 10
198.8281782559236
 20
165.9853658869191
 30
0.0
 10
198.5817703740969
 20
165.5936819021963
 30
0.0
  0
SPLINE
  5
159
330
1F
100
AcDbEntity
  8
0
  6
Continuous
 62
     7
370
    15
100
AcDbSpline
210
0.0
220
0.0
230
1.0
 70
     8
 71
     3
 72
     8
 73
     4
 74
     0
 42
0.00000001
 43
0.00000001
 40
15.0
 40
15.0
 40
15.0
 40
15.0
 40
16.0
 40
16.0
 40
16.0
 40
16.0
 10
202.7340529034255
 20
170.7118452723124
 30
0.0
 10
202.509892228655
 20
170.5669912296014
 30
0.0
 10
202.3050147438567
 20
170.3975685733411
 30
0.0
 10
202.1086358301842
 20
170.21735742335
 30
0.0
  0
SPLINE
  5
15A
330
1F
100
AcDbEntity
  8
0
  6
Continuous
 62
     7
370
    15
100
AcDbSpline
210
0.0
220
0.0
230
1.0
 70
     8
 71
     3
 72
     8
 73
     4
 74
     0
 42
0.00000001
 43
0.00000001
 40
14.0
 40
14.0
 40
14.0
 40
14.0
 40
15.0
 40
15.0
 40
15.0
 40
15.0
 10
203.3518952513176
 20
170.9886195680736
 30
0.0
 10
203.1260810903432
 20
170.9411109370879
 30
0.0
 10
202.9256898581312
 20
170.8356819065191
 30
0.0
 10
202.7340529034255
 20
170.7118452723124
 30
0.0
  0
SPLINE
  5
15B
330
1F
100
AcDbEntity
  8
0
  6
Continuous
 62
     7
370
    15
100
AcDbSpline
210
0.0
220
0.0
230
1.0
 70
     8
 71
     3
 72
     8
 73
     4
 74
     0
 42
0.00000001
 43
0.00000001
 40
13.0
 40
13.0
 40
13.0
 40
13.0
 40
14.0
 40
14.0
 40
14.0
 40
14.0
 10
204.0167099385246
 20
170.8285769528494
 30
0.0
 10
203.8241615530162
 20
171.0002104329632
 30
0.0
 10
203.598536118681
 20
171.0405091658178
 30
0.0
 10
203.3518952513176
 20
170.9886195680736
 30
0.0
  0
SPLINE
  5
15C
330
1F
100
AcDbEntity
  8
0
  6
Continuous
 62
     7
370
    15
100
AcDbSpline
210
0.0
220
0.0
230
1.0
 70
     8
 71
     3
 72
     8
 73
     4
 74
     0
 42
0.00000001
 43
0.00000001
 40
12.0
 40
12.0
 40
12.0
 40
12.0
 40
13.0
 40
13.0
 40
13.0
 40
13.0
 10
204.2457825406928
 20
170.5228557846408
 30
0.0
 10
204.1861359540993
 20
170.6372341867506
 30
0.0
 10
204.113357894332
 20
170.7424283744787
 30
0.0
 10
204.0167099385246
 20
170.8285769528494
 30
0.0
  0
SPLINE
  5
15D
330
1F
100
AcDbEntity
  8
0
  6
Continuous
 62
     7
370
    15
100
AcDbSpline
210
0.0
220
0.0
230
1.0
 70
     8
 71
     3
 72
     8
 73
     4
 74
     0
 42
0.00000001
 43
0.00000001
 40
11.0
 40
11.0
 40
11.0
 40
11.0
 40
12.0
 40
12.0
 40
12.0
 40
12.0
 10
204.4956441664409
 20
169.7151918006327
 30
0.0
 10
204.4471074027555
 20
169.9949772873625
 30
0.0
 10
204.3782275604876
 20
170.2688734489333
 30
0.0
 10
204.2457825406928
 20
170.5228557846408
 30
0.0
  0
SPLINE
  5
15E
330
1F
100
AcDbEntity
  8
0
  6
Continuous
 62
     7
370
    15
100
AcDbSpline
210
0.0
220
0.0
230
1.0
 70
     8
 71
     3
 72
    11
 73
     7
 74
     0
 42
0.00000001
 43
0.00000001
 40
9.0
 40
9.0
 40
9.0
 40
9.0
 40
10.0
 40
10.0
 40
10.0
 40
11.0
 40
11.0
 40
11.0
 40
11.0
 10
204.4565198286985
 20
166.001541343639
 30
0.0
 10
204.5366087605674
 20
166.7669702000733
 30
0.0
 10
204.5953677118787
 20
167.5337394098989
 30
0.0
 10
204.5961454509661
 20
168.3039222283448
 30
0.0
 10
204.5966226027431
 20
168.7766672896559
 30
0.0
 10
204.5766493634339
 20
169.2482418241198
 30
0.0
 10
204.4956441664409
 20
169.7151918006327
 30
0.0
  0
SPLINE
  5
15F
330
1F
100
AcDbEntity
  8
0
  6
Continuous
 62
     7
370
    15
100
AcDbSpline
210
0.0
220
0.0
230
1.0
 70
     8
 71
     3
 72
     8
 73
     4
 74
     0
 42
0.00000001
 43
0.00000001
 40
8.0
 40
8.0
 40
8.0
 40
8.0
 40
9.0
 40
9.0
 40
9.0
 40
9.0
 10
204.4512550534625
 20
165.9468052099393
 30
0.0
 10
204.453520203996
 20
165.9704355168194
 30
0.0
 10
204.4548931025217
 20
165.9860014256885
 30
0.0
 10
204.4565198286985
 20
166.001541343639
 30
0.0
  0
SPLINE
  5
160
330
1F
100
AcDbEntity
  8
0
  6
Continuous
 62
     7
370
    15
100
AcDbSpline
210
0.0
220
0.0
230
1.0
 70
     8
 71
     3
 72
    14
 73
    10
 74
     0
 42
0.00000001
 43
0.00000001
 40
5.0
 40
5.0
 40
5.0
 40
5.0
 40
6.0
 40
6.0
 40
6.0
 40
7.0
 40
7.0
 40
7.0
 40
8.0
 40
8.0
 40
8.0
 40
8.0
 10
205.1544474150242
 20
166.808225208781
 30
0.0
 10
205.1531451560703
 20
166.7917160462709
 30
0.0
 10
205.1470015701297
 20
166.7726758171798
 30
0.0
 10
205.1366170284295
 20
166.7602298181148
 30
0.0
 10
204.9145123838228
 20
166.4940315530301
 30
0.0
 10
204.6914833001455
 20
166.2286041273956
 30
0.0
 10
204.4685712026273
 20
165.9630809672348
 30
0.0
 10
204.4655734315934
 20
165.9595105334803
 30
0.0
 10
204.4617634737099
 20
165.9566240339281
 30
0.0
 10
204.4512550534625
 20
165.9468052099393
 30
0.0
  0
SPLINE
  5
161
330
1F
100
AcDbEntity
  8
0
  6
Continuous
 62
     7
370
    15
100
AcDbSpline
210
0.0
220
0.0
230
1.0
 70
     8
 71
     3
 72
     8
 73
     4
 74
     0
 42
0.00000001
 43
0.00000001
 40
4.0
 40
4.0
 40
4.0
 40
4.0
 40
5.0
 40
5.0
 40
5.0
 40
5.0
 10
205.2253764671431
 20
167.7421249081752
 30
0.0
 10
205.2067215792204
 20
167.4305234781678
 30
0.0
 10
205.1789875672198
 20
167.1194587837414
 30
0.0
 10
205.1544474150242
 20
166.808225208781
 30
0.0
  0
SPLINE
  5
162
330
1F
100
AcDbEntity
  8
0
  6
Continuous
 62
     7
370
    15
100
AcDbSpline
210
0.0
220
0.0
230
1.0
 70
     8
 71
     3
 72
     8
 73
     4
 74
     0
 42
0.00000001
 43
0.00000001
 40
3.0
 40
3.0
 40
3.0
 40
3.0
 40
4.0
 40
4.0
 40
4.0
 40
4.0
 10
205.2103475173287
 20
169.9411849460674
 30
0.0
 10
205.2819114874733
 20
169.208674572055
 30
0.0
 10
205.2692739558517
 20
168.4753415497914
 30
0.0
 10
205.2253764671431
 20
167.7421249081752
 30
0.0
  0
SPLINE
  5
163
330
1F
100
AcDbEntity
  8
0
  6
Continuous
 62
     7
370
    15
100
AcDbSpline
210
0.0
220
0.0
230
1.0
 70
     8
 71
     3
 72
     8
 73
     4
 74
     0
 42
0.00000001
 43
0.00000001
 40
2.0
 40
2.0
 40
2.0
 40
2.0
 40
3.0
 40
3.0
 40
3.0
 40
3.0
 10
205.0293143359501
 20
170.9323972632499
 30
0.0
 10
205.1254604088645
 20
170.6086266282996
 30
0.0
 10
205.1775838111265
 20
170.2765351382365
 30
0.0
 10
205.2103475173287
 20
169.9411849460674
 30
0.0
  0
SPLINE
  5
164
330
1F
100
AcDbEntity
  8
0
  6
Continuous
 62
     7
370
    15
100
AcDbSpline
210
0.0
220
0.0
230
1.0
 70
     8
 71
     3
 72
     8
 73
     4
 74
     0
 42
0.00000001
 43
0.00000001
 40
1.0
 40
1.0
 40
1.0
 40
1.0
 40
2.0
 40
2.0
 40
2.0
 40
2.0
 10
204.6938441522647
 20
171.6354296344338
 30
0.0
 10
204.8566084230058
 20
171.4255129968944
 30
0.0
 10
204.9545297686614
 20
171.1842381170083
 30
0.0
 10
205.0293143359501
 20
170.9323972632499
 30
0.0
  0
SPLINE
  5
165
330
1F
100
AcDbEntity
  8
0
  6
Continuous
 62
     7
370
    15
100
AcDbSpline
210
0.0
220
0.0
230
1.0
 70
     8
 71
     3
 72
     8
 73
     4
 74
     0
 42
0.00000001
 43
0.00000001
 40
0.0
 40
0.0
 40
0.0
 40
0.0
 40
1.0
 40
1.0
 40
1.0
 40
1.0
 10
204.5893167131029
 20
171.7600107359469
 30
0.0
 10
204.6242434377185
 20
171.7185490091723
 30
0.0
 10
204.6606534042522
 20
171.6782372119103
 30
0.0
 10
204.6938441522647
 20
171.6354296344338
 30
0.0
  0
LINE
  5
166
330
1F
100
AcDbEntity
  8
0
  6
Continuous
 62
     7
370
    15
100
AcDbLine
 10
196.0999043981
 20
150.4838727338
 30
0.0
 11
194.5914915154
 21
150.7038241175
 31
0.0
  0
LINE
  5
167
330
1F
100
AcDbEntity
  8
0
  6
Continuous
 62
     7
370
    15
100
AcDbLine
 10
196.3591194103
 20
150.7927663547
 30
0.0
 11
196.0999043981
 21
150.4838727338
 31
0.0
  0
LINE
  5
168
330
1F
100
AcDbEntity
  8
0
  6
Continuous
 62
     7
370
    15
100
AcDbLine
 10
194.8358835975
 20
152.070811942
 30
0.0
 11
196.3591194103
 21
150.7927663547
 31
0.0
  0
LINE
  5
169
330
1F
100
AcDbEntity
  8
0
  6
Continuous
 62
     7
370
    15
100
AcDbLine
 10
194.5962990026
 20
151.7851548192
 30
0.0
 11
194.8358835975
 21
152.070811942
 31
0.0
  0
LINE
  5
16A
330
1F
100
AcDbEntity
  8
0
  6
Continuous
 62
     7
370
    15
100
AcDbLine
 10
195.6135267715
 20
150.9317886007
 30
0.0
 11
194.5962990026
 21
151.7851548192
 31
0.0
  0
LINE
  5
16B
330
1F
100
AcDbEntity
  8
0
  6
Continuous
 62
     7
370
    15
100
AcDbLine
 10
194.0726610223
 20
151.1613568214
 30
0.0
 11
195.6135267715
 21
150.9317886007
 31
0.0
  0
LINE
  5
16C
330
1F
100
AcDbEntity
  8
0
  6
Continuous
 62
     7
370
    15
100
AcDbLine
 10
193.8218595783
 20
150.8620772434
 30
0.0
 11
194.0726610223
 21
151.1613568214
 31
0.0
  0
LINE
  5
16D
330
1F
100
AcDbEntity
  8
0
  6
Continuous
 62
     7
370
    15
100
AcDbLine
 10
195.3450972537
 20
149.5840325875
 30
0.0
 11
193.8218595783
 21
150.8620772434
 31
0.0
  0
LINE
  5
16E
330
1F
100
AcDbEntity
  8
0
  6
Continuous
 62
     7
370
    15
100
AcDbLine
 10
195.5850823174
 20
149.8700901789
 30
0.0
 11
195.3450972537
 21
149.5840325875
 31
0.0
  0
LINE
  5
16F
330
1F
100
AcDbEntity
  8
0
  6
Continuous
 62
     7
370
    15
100
AcDbLine
 10
194.5914915154
 20
150.7038241175
 30
0.0
 11
195.5850823174
 21
149.8700901789
 31
0.0
  0
LINE
  5
170
330
1F
100
AcDbEntity
  8
0
  6
Continuous
 62
     7
370
    15
100
AcDbLine
 10
196.4095728795
 20
153.9461584685
 30
0.0
 11
196.6671841542
 21
153.7302127031
 31
0.0
  0
LINE
  5
171
330
1F
100
AcDbEntity
  8
0
  6
Continuous
 62
     7
370
    15
100
AcDbLine
 10
196.1431457053
 20
153.6284498793
 30
0.0
 11
196.4095728795
 21
153.9461584685
 31
0.0
  0
LINE
  5
172
330
1F
100
AcDbEntity
  8
0
  6
Continuous
 62
     7
370
    15
100
AcDbLine
 10
196.4007588426
 20
153.412504114
 30
0.0
 11
196.1431457053
 21
153.6284498793
 31
0.0
  0
LINE
  5
173
330
1F
100
AcDbEntity
  8
0
  6
Continuous
 62
     7
370
    15
100
AcDbLine
 10
196.7300856809
 20
153.2294116837
 30
0.0
 11
196.4007588426
 21
153.412504114
 31
0.0
  0
LINE
  5
174
330
1F
100
AcDbEntity
  8
0
  6
Continuous
 62
     7
370
    15
100
AcDbLine
 10
196.9107752989
 20
153.4445555804
 30
0.0
 11
196.7300856809
 21
153.2294116837
 31
0.0
  0
LINE
  5
175
330
1F
100
AcDbEntity
  8
0
  6
Continuous
 62
     7
370
    15
100
AcDbLine
 10
196.6671841542
 20
153.7302127031
 30
0.0
 11
196.9107752989
 21
153.4445555804
 31
0.0
  0
LINE
  5
176
330
1F
100
AcDbEntity
  8
0
  6
Continuous
 62
     7
370
    15
100
AcDbLine
 10
199.5785972426
 20
155.7960277346
 30
0.0
 11
199.4099272738
 21
155.5953072307
 31
0.0
  0
SPLINE
  5
177
330
1F
100
AcDbEntity
  8
0
  6
Continuous
 62
     7
370
    15
100
AcDbSpline
210
0.0
220
0.0
230
1.0
 70
     8
 71
     3
 72
    15
 73
    11
 74
     0
 42
0.00000001
 43
0.00000001
 40
0.0
 40
0.0
 40
0.0
 40
0.0
 40
0.0919317258520132
 40
0.1935665753727643
 40
0.304727608328983
 40
0.4244380358475386
 40
0.5538786460862288
 40
0.6933069348377796
 40
0.8420012358133452
 40
1.0
 40
1.0
 40
1.0
 40
1.0
 10
199.8241904982176
 20
156.1333678154365
 30
0.0
 10
199.8178457461024
 20
156.1222452668494
 30
0.0
 10
199.8044865719202
 20
156.0988262173376
 30
0.0
 10
199.7820839966848
 20
156.0627568365899
 30
0.0
 10
199.7558548571077
 20
156.0245810300703
 30
0.0
 10
199.7271152668893
 20
155.9834334154129
 30
0.0
 10
199.6943957932661
 20
155.9403101667239
 30
0.0
 10
199.6588826948046
 20
155.8942531400322
 30
0.0
 10
199.6199905159291
 20
155.8457858349422
 30
0.0
 10
199.592671473612
 20
155.8129460905879
 30
0.0
 10
199.5785975494996
 20
155.7960280718468
 30
0.0
  0
SPLINE
  5
178
330
1F
100
AcDbEntity
  8
0
  6
Continuous
 62
     7
370
    15
100
AcDbSpline
210
0.0
220
0.0
230
1.0
 70
     8
 71
     3
 72
    19
 73
    15
 74
     0
 42
0.00000001
 43
0.00000001
 40
0.0
 40
0.0
 40
0.0
 40
0.0
 40
0.1086377177486562
 40
0.2096869150453424
 40
0.3035004010825326
 40
0.3929772092806491
 40
0.4778629406300877
 40
0.559673726946983
 40
0.6382722277312762
 40
0.7160489002368128
 40
0.7914820341431356
 40
0.8630854737506995
 40
0.9326193075411064
 40
1.0
 40
1.0
 40
1.0
 40
1.0
 10
199.650712934115
 20
156.8577267897955
 30
0.0
 10
199.6726276826867
 20
156.8382592039898
 30
0.0
 10
199.7149263991658
 20
156.800683874762
 30
0.0
 10
199.7694574821595
 20
156.739326572731
 30
0.0
 10
199.8126513431251
 20
156.6757082300421
 30
0.0
 10
199.8447916052493
 20
156.6106497044111
 30
0.0
 10
199.8670135117794
 20
156.5451152722332
 30
0.0
 10
199.8824896717734
 20
156.4806399148496
 30
0.0
 10
199.8883219015073
 20
156.4164695380012
 30
0.0
 10
199.8866581401891
 20
156.3538545701977
 30
0.0
 10
199.8784809728048
 20
156.2936881816088
 30
0.0
 10
199.8657576837483
 20
156.2366215186345
 30
0.0
 10
199.8478772894162
 20
156.1831483558994
 30
0.0
 10
199.8320028807255
 20
156.1497864438733
 30
0.0
 10
199.8241904982176
 20
156.1333678154365
 30
0.0
  0
SPLINE
  5
179
330
1F
100
AcDbEntity
  8
0
  6
Continuous
 62
     7
370
    15
100
AcDbSpline
210
0.0
220
0.0
230
1.0
 70
     8
 71
     3
 72
    23
 73
    19
 74
     0
 42
0.00000001
 43
0.00000001
 40
0.0
 40
0.0
 40
0.0
 40
0.0
 40
0.0569138455958522
 40
0.1134976968088582
 40
0.1696589737946231
 40
0.2259182379036372
 40
0.2830711016981391
 40
0.3409636454991314
 40
0.3998887611888947
 40
0.4607655127448276
 40
0.5229580414891534
 40
0.5854333252495733
 40
0.6487231956816671
 40
0.7143207060424851
 40
0.7814453918829951
 40
0.8512904469289789
 40
0.9237785156253183
 40
1.0
 40
1.0
 40
1.0
 40
1.0
 10
198.947587934115
 20
156.9242332000519
 30
0.0
 10
198.9596049224583
 20
156.9323360445408
 30
0.0
 10
198.9835692229773
 20
156.9484947521006
 30
0.0
 10
199.0218132835125
 20
156.9686619910288
 30
0.0
 10
199.0610918691762
 20
156.9863202652518
 30
0.0
 10
199.1023212974957
 20
156.9993311718946
 30
0.0
 10
199.144777843187
 20
157.00934334486
 30
0.0
 10
199.1885617468715
 20
157.0162537094473
 30
0.0
 10
199.2337245502376
 20
157.0193893915335
 30
0.0
 10
199.280083614959
 20
157.019018723306
 30
0.0
 10
199.3271676708583
 20
157.0147124088137
 30
0.0
 10
199.3742526180327
 20
157.0058538623118
 30
0.0
 10
199.4210894726193
 20
156.9923363526133
 30
0.0
 10
199.4679269851704
 20
156.9749721887099
 30
0.0
 10
199.5141895804115
 20
156.9520655118567
 30
0.0
 10
199.5602733334133
 20
156.9252233233401
 30
0.0
 10
199.6062857623064
 20
156.8938513833446
 30
0.0
 10
199.6356580754336
 20
156.8699681868655
 30
0.0
 10
199.650712934115
 20
156.8577267897955
 30
0.0
  0
SPLINE
  5
17A
330
1F
100
AcDbEntity
  8
0
  6
Continuous
 62
     7
370
    15
100
AcDbSpline
210
0.0
220
0.0
230
1.0
 70
     8
 71
     3
 72
    15
 73
    11
 74
     0
 42
0.00000001
 43
0.00000001
 40
0.0
 40
0.0
 40
0.0
 40
0.0
 40
0.1831727316443384
 40
0.3490354121856633
 40
0.4987205427627943
 40
0.6311578635725227
 40
0.7481543759639983
 40
0.8480256732633795
 40
0.9321357752304457
 40
0.9999999999999999
 40
0.9999999999999999
 40
0.9999999999999999
 40
0.9999999999999999
 10
198.6174597289868
 20
156.5776787128724
 30
0.0
 10
198.6363944707498
 20
156.6000051886692
 30
0.0
 10
198.6724745976145
 20
156.6425482605142
 30
0.0
 10
198.7244781462069
 20
156.7029605947581
 30
0.0
 10
198.7725737869542
 20
156.7560024248871
 30
0.0
 10
198.8158528486485
 20
156.802869450257
 30
0.0
 10
198.8549872837317
 20
156.8426894943916
 30
0.0
 10
198.889361393236
 20
156.876351358065
 30
0.0
 10
198.9196885109058
 20
156.9028677772684
 30
0.0
 10
198.9389753740583
 20
156.9176376878265
 30
0.0
 10
198.947587934115
 20
156.9242332000519
 30
0.0
  0
LINE
  5
17B
330
1F
100
AcDbEntity
  8
0
  6
Continuous
 62
     7
370
    15
100
AcDbLine
 10
198.2031977127
 20
156.0836881322
 30
0.0
 11
198.6174593071
 21
156.5776783896
 31
0.0
  0
LINE
  5
17C
330
1F
100
AcDbEntity
  8
0
  6
Continuous
 62
     7
370
    15
100
AcDbLine
 10
199.7264335255
 20
154.8056434763
 30
0.0
 11
198.2031977127
 21
156.0836881322
 31
0.0
  0
LINE
  5
17D
330
1F
100
AcDbEntity
  8
0
  6
Continuous
 62
     7
370
    15
100
AcDbLine
 10
199.9844471315
 20
155.1133356911
 30
0.0
 11
199.7264335255
 21
154.8056434763
 31
0.0
  0
LINE
  5
17E
330
1F
100
AcDbEntity
  8
0
  6
Continuous
 62
     7
370
    15
100
AcDbLine
 10
199.4099272738
 20
155.5953072307
 30
0.0
 11
199.9844471315
 21
155.1133356911
 31
0.0
  0
LINE
  5
17F
330
1F
100
AcDbEntity
  8
0
  6
Continuous
 62
     7
370
    15
100
AcDbLine
 10
201.857348005
 20
159.9158309323
 30
0.0
 11
201.4791434953
 21
159.464709453
 31
0.0
  0
LINE
  5
180
330
1F
100
AcDbEntity
  8
0
  6
Continuous
 62
     7
370
    15
100
AcDbLine
 10
201.5997348676
 20
160.1317766977
 30
0.0
 11
201.857348005
 21
159.9158309323
 31
0.0
  0
LINE
  5
181
330
1F
100
AcDbEntity
  8
0
  6
Continuous
 62
     7
370
    15
100
AcDbLine
 10
200.5841108362
 20
158.9210387242
 30
0.0
 11
201.5997348676
 21
160.1317766977
 31
0.0
  0
LINE
  5
182
330
1F
100
AcDbEntity
  8
0
  6
Continuous
 62
     7
370
    15
100
AcDbLine
 10
200.8417221109
 20
158.7050929589
 30
0.0
 11
200.5841108362
 21
158.9210387242
 31
0.0
  0
LINE
  5
183
330
1F
100
AcDbEntity
  8
0
  6
Continuous
 62
     7
370
    15
100
AcDbLine
 10
201.2207294206
 20
159.1570172382
 30
0.0
 11
200.8417221109
 21
158.7050929589
 31
0.0
  0
LINE
  5
184
330
1F
100
AcDbEntity
  8
0
  6
Continuous
 62
     7
370
    15
100
AcDbLine
 10
202.4863539586
 20
158.094916485
 30
0.0
 11
201.2207294206
 21
159.1570172382
 31
0.0
  0
LINE
  5
185
330
1F
100
AcDbEntity
  8
0
  6
Continuous
 62
     7
370
    15
100
AcDbLine
 10
202.7447680334
 20
158.4026086998
 30
0.0
 11
202.4863539586
 21
158.094916485
 31
0.0
  0
LINE
  5
186
330
1F
100
AcDbEntity
  8
0
  6
Continuous
 62
     7
370
    15
100
AcDbLine
 10
201.4791434953
 20
159.464709453
 30
0.0
 11
202.7447680334
 21
158.4026086998
 31
0.0
  0
LINE
  5
187
330
1F
100
AcDbEntity
  8
0
  6
Continuous
 62
     7
370
    15
100
AcDbLine
 10
205.2307846347
 20
161.3656319601
 30
0.0
 11
203.7223717521
 21
161.5855842752
 31
0.0
  0
LINE
  5
188
330
1F
100
AcDbEntity
  8
0
  6
Continuous
 62
     7
370
    15
100
AcDbLine
 10
205.4899996469
 20
161.674525581
 30
0.0
 11
205.2307846347
 21
161.3656319601
 31
0.0
  0
LINE
  5
189
330
1F
100
AcDbEntity
  8
0
  6
Continuous
 62
     7
370
    15
100
AcDbLine
 10
203.9667638341
 20
162.952570237
 30
0.0
 11
205.4899996469
 21
161.674525581
 31
0.0
  0
LINE
  5
18A
330
1F
100
AcDbEntity
  8
0
  6
Continuous
 62
     7
370
    15
100
AcDbLine
 10
203.7271792392
 20
162.6669131142
 30
0.0
 11
203.9667638341
 21
162.952570237
 31
0.0
  0
LINE
  5
18B
330
1F
100
AcDbEntity
  8
0
  6
Continuous
 62
     7
370
    15
100
AcDbLine
 10
204.7444070081
 20
161.813547827
 30
0.0
 11
203.7271792392
 21
162.6669131142
 31
0.0
  0
LINE
  5
18C
330
1F
100
AcDbEntity
  8
0
  6
Continuous
 62
     7
370
    15
100
AcDbLine
 10
203.203541259
 20
162.0431151164
 30
0.0
 11
204.7444070081
 21
161.813547827
 31
0.0
  0
LINE
  5
18D
330
1F
100
AcDbEntity
  8
0
  6
Continuous
 62
     7
370
    15
100
AcDbLine
 10
202.9527398149
 20
161.7438364697
 30
0.0
 11
203.203541259
 21
162.0431151164
 31
0.0
  0
LINE
  5
18E
330
1F
100
AcDbEntity
  8
0
  6
Continuous
 62
     7
370
    15
100
AcDbLine
 10
204.4759774903
 20
160.4657918138
 30
0.0
 11
202.9527398149
 21
161.7438364697
 31
0.0
  0
LINE
  5
18F
330
1F
100
AcDbEntity
  8
0
  6
Continuous
 62
     7
370
    15
100
AcDbLine
 10
204.715962554
 20
160.7518494052
 30
0.0
 11
204.4759774903
 21
160.4657918138
 31
0.0
  0
LINE
  5
190
330
1F
100
AcDbEntity
  8
0
  6
Continuous
 62
     7
370
    15
100
AcDbLine
 10
203.7223717521
 20
161.5855842752
 30
0.0
 11
204.715962554
 21
160.7518494052
 31
0.0
  0
LINE
  5
191
330
1F
100
AcDbEntity
  8
0
  6
Continuous
 62
     7
370
    15
100
AcDbLine
 10
206.8477450261
 20
163.8142950756
 30
0.0
 11
207.5620880673
 21
164.6656580192
 31
0.0
  0
LINE
  5
192
330
1F
100
AcDbEntity
  8
0
  6
Continuous
 62
     7
370
    15
100
AcDbLine
 10
206.4330811004
 20
164.1620527876
 30
0.0
 11
206.8477450261
 21
163.8142950756
 31
0.0
  0
LINE
  5
193
330
1F
100
AcDbEntity
  8
0
  6
Continuous
 62
     7
370
    15
100
AcDbLine
 10
207.0749085719
 20
164.926875375
 30
0.0
 11
206.4330811004
 21
164.1620527876
 31
0.0
  0
LINE
  5
194
330
1F
100
AcDbEntity
  8
0
  6
Continuous
 62
     7
370
    15
100
AcDbLine
 10
206.818497772
 20
165.1420202029
 30
0.0
 11
207.0749085719
 21
164.926875375
 31
0.0
  0
LINE
  5
195
330
1F
100
AcDbEntity
  8
0
  6
Continuous
 62
     7
370
    15
100
AcDbLine
 10
206.1766712318
 20
164.3771957529
 30
0.0
 11
206.818497772
 21
165.1420202029
 31
0.0
  0
LINE
  5
196
330
1F
100
AcDbEntity
  8
0
  6
Continuous
 62
     7
370
    15
100
AcDbLine
 10
205.8389308254
 20
164.6608505321
 30
0.0
 11
206.1766712318
 21
164.3771957529
 31
0.0
  0
LINE
  5
197
330
1F
100
AcDbEntity
  8
0
  6
Continuous
 62
     7
370
    15
100
AcDbLine
 10
206.5288350309
 20
165.4829662216
 30
0.0
 11
205.8389308254
 21
164.6608505321
 31
0.0
  0
LINE
  5
198
330
1F
100
AcDbEntity
  8
0
  6
Continuous
 62
     7
370
    15
100
AcDbLine
 10
206.2712228248
 20
165.698911987
 30
0.0
 11
206.5288350309
 21
165.4829662216
 31
0.0
  0
LINE
  5
199
330
1F
100
AcDbEntity
  8
0
  6
Continuous
 62
     7
370
    15
100
AcDbLine
 10
205.3233059446
 20
164.5691040826
 30
0.0
 11
206.2712228248
 21
165.698911987
 31
0.0
  0
LINE
  5
19A
330
1F
100
AcDbEntity
  8
0
  6
Continuous
 62
     7
370
    15
100
AcDbLine
 10
206.8465426887
 20
163.2910594267
 30
0.0
 11
205.3233059446
 21
164.5691040826
 31
0.0
  0
LINE
  5
19B
330
1F
100
AcDbEntity
  8
0
  6
Continuous
 62
     7
370
    15
100
AcDbLine
 10
207.8188984046
 20
164.4501127226
 30
0.0
 11
206.8465426887
 21
163.2910594267
 31
0.0
  0
LINE
  5
19C
330
1F
100
AcDbEntity
  8
0
  6
Continuous
 62
     7
370
    15
100
AcDbLine
 10
207.5620880673
 20
164.6656580192
 30
0.0
 11
207.8188984046
 21
164.4501127226
 31
0.0
  0
LINE
  5
19D
330
1F
100
AcDbEntity
  8
0
  6
Continuous
 62
     7
370
    15
100
AcDbLine
 10
221.2129249851
 20
177.9510043484
 30
0.0
 11
221.2129249851
 21
161.716166876
 31
0.0
  0
LINE
  5
19E
330
1F
100
AcDbEntity
  8
0
  6
Continuous
 62
     7
370
    15
100
AcDbLine
 10
221.2129249851
 20
120.362389825
 30
0.0
 11
221.2129249851
 21
104.1275523526
 31
0.0
  0
SPLINE
  5
19F
330
1F
100
AcDbEntity
  8
0
  6
Continuous
 62
     7
370
    15
100
AcDbSpline
210
0.0
220
0.0
230
1.0
 70
     8
 71
     3
 72
     8
 73
     4
 74
     0
 42
0.00000001
 43
0.00000001
 40
0.0
 40
0.0
 40
0.0
 40
0.0
 40
0.0001599096536456
 40
0.0001599096536456
 40
0.0001599096536456
 40
0.0001599096536456
 10
205.8019980596883
 20
155.1269630205423
 30
0.0
 10
205.7982466720776
 20
155.1801340664936
 30
0.0
 10
205.7962735737944
 20
155.2334612165025
 30
0.0
 10
205.7961084775079
 20
155.286764178707
 30
0.0
  0
SPLINE
  5
1A0
330
1F
100
AcDbEntity
  8
0
  6
Continuous
 62
     7
370
    15
100
AcDbSpline
210
0.0
220
0.0
230
1.0
 70
     8
 71
     3
 72
     8
 73
     4
 74
     0
 42
0.00000001
 43
0.00000001
 40
0.0
 40
0.0
 40
0.0
 40
0.0
 40
0.0001599096536456
 40
0.0001599096536456
 40
0.0001599096536456
 40
0.0001599096536456
 10
201.4321687235957
 20
134.520360111006
 30
0.0
 10
201.3842455532507
 20
134.5436968370113
 30
0.0
 10
201.33707633749
 20
134.5686516587783
 30
0.0
 10
201.2908320699806
 20
134.5951601623024
 30
0.0
  0
SPLINE
  5
1A1
330
1F
100
AcDbEntity
  8
0
  6
Continuous
 62
     7
370
    15
100
AcDbSpline
210
0.0
220
0.0
230
1.0
 70
     8
 71
     3
 72
     8
 73
     4
 74
     0
 42
0.00000001
 43
0.00000001
 40
0.0
 40
0.0
 40
0.0
 40
0.0
 40
0.0001599096536456
 40
0.0001599096536456
 40
0.0001599096536456
 40
0.0001599096536456
 10
217.0930956609063
 20
120.4326754409789
 30
0.0
 10
217.048923878172
 20
120.402841121033
 30
0.0
 10
217.0037277606945
 20
120.374468792791
 30
0.0
 10
216.9576485894717
 20
120.3476743341106
 30
0.0
  0
SPLINE
  5
1A2
330
1F
100
AcDbEntity
  8
0
  6
Continuous
 62
     7
370
    15
100
AcDbSpline
210
0.0
220
0.0
230
1.0
 70
     8
 71
     3
 72
     8
 73
     4
 74
     0
 42
0.00000001
 43
0.00000001
 40
0.0
 40
0.0
 40
0.0
 40
0.0
 40
0.0001599096536456
 40
0.0001599096536456
 40
0.0001599096536456
 40
0.0001599096536456
 10
216.957648589472
 20
161.7308823669203
 30
0.0
 10
217.0037277606948
 20
161.7040879082398
 30
0.0
 10
217.0489238781723
 20
161.6757155799979
 30
0.0
 10
217.0930956609066
 20
161.645881260052
 30
0.0
  0
SPLINE
  5
1A3
330
1F
100
AcDbEntity
  8
0
  6
Continuous
 62
     7
370
    15
100
AcDbSpline
210
0.0
220
0.0
230
1.0
 70
     8
 71
     3
 72
     8
 73
     4
 74
     0
 42
0.00000001
 43
0.00000001
 40
0.0
 40
0.0
 40
0.0
 40
0.0
 40
0.0001599096536456
 40
0.0001599096536456
 40
0.0001599096536456
 40
0.0001599096536456
 10
201.2908320699808
 20
147.4833965387287
 30
0.0
 10
201.3370763374901
 20
147.5099050422528
 30
0.0
 10
201.3842455532508
 20
147.5348598640197
 30
0.0
 10
201.4321687235958
 20
147.5581965900251
 30
0.0
  0
SPLINE
  5
1A4
330
1F
100
AcDbEntity
  8
0
  6
Continuous
 62
     7
370
    15
100
AcDbSpline
210
0.0
220
0.0
230
1.0
 70
     8
 71
     3
 72
     8
 73
     4
 74
     0
 42
0.00000001
 43
0.00000001
 40
0.0
 40
0.0
 40
0.0
 40
0.0
 40
0.0001599096536456
 40
0.0001599096536456
 40
0.0001599096536456
 40
0.0001599096536456
 10
205.7961084775077
 20
126.791792522324
 30
0.0
 10
205.7962735737942
 20
126.8450954845285
 30
0.0
 10
205.7982466720774
 20
126.8984226345374
 30
0.0
 10
205.8019980596881
 20
126.9515936804888
 30
0.0
  0
LINE
  5
1A5
330
1F
100
AcDbEntity
  8
0
  6
Continuous
 62
     7
370
    15
100
AcDbLine
 10
198.8438209842
 20
156.3240727333
 30
0.0
 11
198.7188225935
 21
156.175435513
 31
0.0
  0
SPLINE
  5
1A6
330
1F
100
AcDbEntity
  8
0
  6
Continuous
 62
     7
370
    15
100
AcDbSpline
210
0.0
220
0.0
230
1.0
 70
     8
 71
     3
 72
    15
 73
    11
 74
     0
 42
0.00000001
 43
0.00000001
 40
0.0
 40
0.0
 40
0.0
 40
0.0
 40
0.0715410085013496
 40
0.1576028591186395
 40
0.2583130841919226
 40
0.3757050192355815
 40
0.5088047020035654
 40
0.6567028941046185
 40
0.8204766202250883
 40
0.9999999999999999
 40
0.9999999999999999
 40
0.9999999999999999
 40
0.9999999999999999
 10
199.0401360110381
 20
156.5368133282571
 30
0.0
 10
199.034883769629
 20
156.5323213956768
 30
0.0
 10
199.0233132273597
 20
156.522425792687
 30
0.0
 10
199.005396732083
 20
156.5050454731915
 30
0.0
 10
198.9848325449509
 20
156.4840654310149
 30
0.0
 10
198.9617610472778
 20
156.4591956938538
 30
0.0
 10
198.9357298034345
 20
156.4308604663527
 30
0.0
 10
198.9071890710677
 20
156.3987493045551
 30
0.0
 10
198.8764904532885
 20
156.3625770023644
 30
0.0
 10
198.8550394635205
 20
156.3372942671101
 30
0.0
 10
198.843821908474
 20
156.3240729436417
 30
0.0
  0
SPLINE
  5
1A7
330
1F
100
AcDbEntity
  8
0
  6
Continuous
 62
     7
370
    15
100
AcDbSpline
210
0.0
220
0.0
230
1.0
 70
     8
 71
     3
 72
    15
 73
    11
 74
     0
 42
0.00000001
 43
0.00000001
 40
0.0
 40
0.0
 40
0.0
 40
0.0
 40
0.1370736810590239
 40
0.2644495872155471
 40
0.3873192766269997
 40
0.5104986937586335
 40
0.63224865367298
 40
0.7526439443412402
 40
0.8734330588522253
 40
1.0
 40
1.0
 40
1.0
 40
1.0
 10
199.3890943443714
 20
156.5372139692827
 30
0.0
 10
199.3752796087135
 20
156.547883611966
 30
0.0
 10
199.348627510995
 20
156.568468034749
 30
0.0
 10
199.3040114307079
 20
156.5901112322208
 30
0.0
 10
199.2579096896816
 20
156.6025322309448
 30
0.0
 10
199.2109209583142
 20
156.605138935982
 30
0.0
 10
199.1646655848551
 20
156.5993028926376
 30
0.0
 10
199.1201435108441
 20
156.5865692537345
 30
0.0
 10
199.0779250536011
 20
156.5657596943554
 30
0.0
 10
199.0529269962595
 20
156.5466112092264
 30
0.0
 10
199.0401360110381
 20
156.5368133282571
 30
0.0
  0
SPLINE
  5
1A8
330
1F
100
AcDbEntity
  8
0
  6
Continuous
 62
     7
370
    15
100
AcDbSpline
210
0.0
220
0.0
230
1.0
 70
     8
 71
     3
 72
    23
 73
    19
 74
     0
 42
0.00000001
 43
0.00000001
 40
0.0
 40
0.0
 40
0.0
 40
0.0
 40
0.0882803647981373
 40
0.1686980101214079
 40
0.2418685447955814
 40
0.3073596375942459
 40
0.3652456116709878
 40
0.4161713915424207
 40
0.4595088780216939
 40
0.4963031418856065
 40
0.5610834484106708
 40
0.6236429175332676
 40
0.6852140036014256
 40
0.7466093870682098
 40
0.8086983844778117
 40
0.8704165491548203
 40
0.9336660163796756
 40
1.0
 40
1.0
 40
1.0
 40
1.0
 10
199.2925398571919
 20
155.9807235846673
 30
0.0
 10
199.3045731462567
 20
155.995401864203
 30
0.0
 10
199.3275679755722
 20
156.0234510975218
 30
0.0
 10
199.360315700398
 20
156.0638530890877
 30
0.0
 10
199.3886903966142
 20
156.1014638967821
 30
0.0
 10
199.4131794750163
 20
156.1359030064926
 30
0.0
 10
199.4339294841931
 20
156.1671395550709
 30
0.0
 10
199.450108931479
 20
156.1955786670083
 30
0.0
 10
199.4634605238644
 20
156.2204217061885
 30
0.0
 10
199.475048437835
 20
156.2494209314085
 30
0.0
 10
199.4834587362089
 20
156.2837970410617
 30
0.0
 10
199.4889643559944
 20
156.324206829705
 30
0.0
 10
199.4864797011607
 20
156.3642181357715
 30
0.0
 10
199.4790281443732
 20
156.4034137818441
 30
0.0
 10
199.4653856401978
 20
156.4410167248578
 30
0.0
 10
199.4459387392044
 20
156.4763976835237
 30
0.0
 10
199.4203151032112
 20
156.5088611329737
 30
0.0
 10
199.3996651101184
 20
156.5276142285325
 30
0.0
 10
199.3890943443714
 20
156.5372139692827
 30
0.0
  0
LINE
  5
1A9
330
1F
100
AcDbEntity
  8
0
  6
Continuous
 62
     7
370
    15
100
AcDbLine
 10
199.1511127303
 20
155.8124544022
 30
0.0
 11
199.2925396512
 21
155.9807239023
 31
0.0
  0
LINE
  5
1AA
330
1F
100
AcDbEntity
  8
0
  6
Continuous
 62
     7
370
    15
100
AcDbLine
 10
198.7188225935
 20
156.175435513
 30
0.0
 11
199.1511127303
 21
155.8124544022
 31
0.0
  0
LINE
  5
1AB
330
1F
100
AcDbEntity
  8
0
  6
Continuous
 62
     7
370
    15
100
AcDbLine
 10
207.1409998784
 20
166.2125065846
 30
0.0
 11
207.025215062
 21
166.074285276
 31
0.0
  0
SPLINE
  5
1AC
330
1F
100
AcDbEntity
  8
0
  6
Continuous
 62
     7
370
    15
100
AcDbSpline
210
0.0
220
0.0
230
1.0
 70
     8
 71
     3
 72
    15
 73
    11
 74
     0
 42
0.00000001
 43
0.00000001
 40
0.0
 40
0.0
 40
0.0
 40
0.0
 40
0.0723606898429887
 40
0.159079956359002
 40
0.2620010181628108
 40
0.3795144119978299
 40
0.5116782962654542
 40
0.6594270795525562
 40
0.8218881950411605
 40
1.0
 40
1.0
 40
1.0
 40
1.0
 10
207.3673624285256
 20
166.4524902342049
 30
0.0
 10
207.3611691687945
 20
166.4474738234593
 30
0.0
 10
207.3475537169535
 20
166.4364455924651
 30
0.0
 10
207.3263257062457
 20
166.4168883416795
 30
0.0
 10
207.3019082913307
 20
166.3934755273841
 30
0.0
 10
207.2752836921434
 20
166.3652005713402
 30
0.0
 10
207.245467953735
 20
166.3331657122083
 30
0.0
 10
207.213218121052
 20
166.2966513488525
 30
0.0
 10
207.177805135234
 20
166.2561852118958
 30
0.0
 10
207.1536387255358
 20
166.2275052305255
 30
0.0
 10
207.1410002490384
 20
166.212506259846
 30
0.0
  0
SPLINE
  5
1AD
330
1F
100
AcDbEntity
  8
0
  6
Continuous
 62
     7
370
    15
100
AcDbSpline
210
0.0
220
0.0
230
1.0
 70
     8
 71
     3
 72
    23
 73
    19
 74
     0
 42
0.00000001
 43
0.00000001
 40
0.0
 40
0.0
 40
0.0
 40
0.0
 40
0.0706203675748484
 40
0.1368320026476037
 40
0.1989028465179858
 40
0.2572759079787865
 40
0.3114613773129485
 40
0.3614089905083563
 40
0.4079002028368864
 40
0.4508377734739492
 40
0.5293551138866217
 40
0.602316532865469
 40
0.670755946002663
 40
0.7353971211736908
 40
0.7986364360384031
 40
0.8627932231108939
 40
0.9295945067740181
 40
1.0
 40
1.0
 40
1.0
 40
1.0
 10
208.0764970439102
 20
166.3018492085639
 30
0.0
 10
208.0621686439823
 20
166.3138529111855
 30
0.0
 10
208.034406346444
 20
166.3371109417694
 30
0.0
 10
207.9925002802783
 20
166.3689873164716
 30
0.0
 10
207.9528101006356
 20
166.3983908868557
 30
0.0
 10
207.9149886142109
 20
166.4249770858607
 30
0.0
 10
207.8784782902125
 20
166.4477422603196
 30
0.0
 10
207.8438483463381
 20
166.4674926917602
 30
0.0
 10
207.8111020395451
 20
166.4845219761704
 30
0.0
 10
207.7702788997343
 20
166.5021606685085
 30
0.0
 10
207.7216560955688
 20
166.5192422287682
 30
0.0
 10
207.6648178920295
 20
166.5324347246295
 30
0.0
 10
207.6104001262092
 20
166.537737584682
 30
0.0
 10
207.5582858691766
 20
166.5360383051531
 30
0.0
 10
207.5082124898824
 20
166.5261213939085
 30
0.0
 10
207.4596605686012
 20
166.5089013758733
 30
0.0
 10
207.411815966034
 20
166.4849177781284
 30
0.0
 10
207.3824375164873
 20
166.4634870660529
 30
0.0
 10
207.3673624285256
 20
166.4524902342049
 30
0.0
  0
SPLINE
  5
1AE
330
1F
100
AcDbEntity
  8
0
  6
Continuous
 62
     7
370
    15
100
AcDbSpline
210
0.0
220
0.0
230
1.0
 70
     8
 71
     3
 72
    23
 73
    19
 74
     0
 42
0.00000001
 43
0.00000001
 40
0.0
 40
0.0
 40
0.0
 40
0.0
 40
0.0631789140319229
 40
0.1235732338789336
 40
0.1813653901402952
 40
0.2379019142703694
 40
0.2970049255241651
 40
0.3637530000825047
 40
0.4391479091840966
 40
0.5242446232173927
 40
0.5708421877704433
 40
0.6214551598632937
 40
0.6751630433619878
 40
0.732780498523549
 40
0.7936404031464116
 40
0.8585425133443013
 40
0.9275656264835023
 40
0.9999999999999999
 40
0.9999999999999999
 40
0.9999999999999999
 40
0.9999999999999999
 10
208.3681637105769
 20
165.6552145931793
 30
0.0
 10
208.3750006752284
 20
165.6700095073263
 30
0.0
 10
208.3883732670946
 20
165.6989472536317
 30
0.0
 10
208.4008122426602
 20
165.7441531741564
 30
0.0
 10
208.4084039698829
 20
165.7885889656892
 30
0.0
 10
208.4098129278058
 20
165.833411105907
 30
0.0
 10
208.4036165048998
 20
165.8802228707189
 30
0.0
 10
208.3876626799146
 20
165.9297745449257
 30
0.0
 10
208.3627341110905
 20
165.9828581974066
 30
0.0
 10
208.3350869276249
 20
166.0285604458566
 30
0.0
 10
208.3086077055925
 20
166.0673615672758
 30
0.0
 10
208.2845113523041
 20
166.0978965283412
 30
0.0
 10
208.2575006195258
 20
166.1296804947954
 30
0.0
 10
208.2276823111061
 20
166.1625395285676
 30
0.0
 10
208.1939328030694
 20
166.1955982601998
 30
0.0
 10
208.1581463984933
 20
166.2307693832535
 30
0.0
 10
208.118428803987
 20
166.2661181966256
 30
0.0
 10
208.0906972138894
 20
166.2897489188999
 30
0.0
 10
208.0764970439102
 20
166.3018492085639
 30
0.0
  0
SPLINE
  5
1AF
330
1F
100
AcDbEntity
  8
0
  6
Continuous
 62
     7
370
    15
100
AcDbSpline
210
0.0
220
0.0
230
1.0
 70
     8
 71
     3
 72
    15
 73
    11
 74
     0
 42
0.00000001
 43
0.00000001
 40
0.0
 40
0.0
 40
0.0
 40
0.0
 40
0.1667189738551202
 40
0.3198141823554365
 40
0.462678805035117
 40
0.5940398957306446
 40
0.7120137474413177
 40
0.8190599397428693
 40
0.9148049648303758
 40
1.0
 40
1.0
 40
1.0
 40
1.0
 10
208.2263367875
 20
165.4572979265126
 30
0.0
 10
208.2350733156534
 20
165.4676686400647
 30
0.0
 10
208.2518324495626
 20
165.4875626041312
 30
0.0
 10
208.2751841476994
 20
165.5170773387196
 30
0.0
 10
208.2962934237974
 20
165.5446860168668
 30
0.0
 10
208.315604080301
 20
165.5700766941665
 30
0.0
 10
208.3322095770237
 20
165.5938519609489
 30
0.0
 10
208.3460556445111
 20
165.6159607276144
 30
0.0
 10
208.358413537602
 20
165.6358784690032
 30
0.0
 10
208.3650424900247
 20
165.6490247226679
 30
0.0
 10
208.3681637105769
 20
165.6552145931793
 30
0.0
  0
LINE
  5
1B0
330
1F
100
AcDbEntity
  8
0
  6
Continuous
 62
     7
370
    15
100
AcDbLine
 10
208.0340292627
 20
165.2277298195
 30
0.0
 11
208.2263371299
 21
165.4572971088
 31
0.0
  0
LINE
  5
1B1
330
1F
100
AcDbEntity
  8
0
  6
Continuous
 62
     7
370
    15
100
AcDbLine
 10
207.025215062
 20
166.074285276
 30
0.0
 11
208.0340292627
 21
165.2277298195
 31
0.0
  0
LINE
  5
1B2
330
1F
100
AcDbEntity
  8
0
  6
Continuous
 62
     7
370
    15
100
AcDbLine
 10
194.2906426589
 20
156.8087600095
 30
0.0
 11
194.771238635
 21
156.405492678
 31
0.0
  0
SPLINE
  5
1B3
330
1F
100
AcDbEntity
  8
0
  6
Continuous
 62
     7
370
    15
100
AcDbSpline
210
0.0
220
0.0
230
1.0
 70
     8
 71
     3
 72
    17
 73
    13
 74
     0
 42
0.00000001
 43
0.00000001
 40
5.0
 40
5.0
 40
5.0
 40
5.0
 40
6.0
 40
6.0
 40
6.0
 40
7.0
 40
7.0
 40
7.0
 40
8.0
 40
8.0
 40
8.0
 40
9.0
 40
9.0
 40
9.0
 40
9.0
 10
195.4432527856703
 20
157.9427070128224
 30
0.0
 10
195.3608985385478
 20
157.9871391321889
 30
0.0
 10
195.2940387195912
 20
157.9805830276626
 30
0.0
 10
195.228333412942
 20
157.9136906581752
 30
0.0
 10
195.1520324353578
 20
157.8360108431447
 30
0.0
 10
195.0807467742563
 20
157.753154914082
 30
0.0
 10
195.0104292417256
 20
157.6698909766884
 30
0.0
 10
194.777844151825
 20
157.3944842566455
 30
0.0
 10
194.5466554750325
 20
157.1179003427166
 30
0.0
 10
194.3150455056753
 20
156.8416717566107
 30
0.0
 10
194.3064552523661
 20
156.831426694111
 30
0.0
 10
194.2990629899754
 20
156.820178219261
 30
0.0
 10
194.2906425202054
 20
156.8087603933354
 30
0.0
  0
SPLINE
  5
1B4
330
1F
100
AcDbEntity
  8
0
  6
Continuous
 62
     7
370
    15
100
AcDbSpline
210
0.0
220
0.0
230
1.0
 70
     8
 71
     3
 72
     8
 73
     4
 74
     0
 42
0.00000001
 43
0.00000001
 40
4.0
 40
4.0
 40
4.0
 40
4.0
 40
5.0
 40
5.0
 40
5.0
 40
5.0
 10
195.6870251297978
 20
157.7339090391752
 30
0.0
 10
195.6211301134102
 20
157.8207953083965
 30
0.0
 10
195.5392592481496
 20
157.890907732096
 30
0.0
 10
195.4432527856703
 20
157.9427070128224
 30
0.0
  0
SPLINE
  5
1B5
330
1F
100
AcDbEntity
  8
0
  6
Continuous
 62
     7
370
    15
100
AcDbSpline
210
0.0
220
0.0
230
1.0
 70
     8
 71
     3
 72
    17
 73
    13
 74
     0
 42
0.00000001
 43
0.00000001
 40
0.0
 40
0.0
 40
0.0
 40
0.0
 40
1.0
 40
1.0
 40
1.0
 40
2.0
 40
2.0
 40
2.0
 40
3.0
 40
3.0
 40
3.0
 40
4.0
 40
4.0
 40
4.0
 40
4.0
 10
194.7712385542973
 20
156.4054924383842
 30
0.0
 10
194.7814158022016
 20
156.4176212101369
 30
0.0
 10
194.7901706330002
 20
156.4280548111937
 30
0.0
 10
194.7989251648461
 20
156.4384880559726
 30
0.0
 10
195.042058760518
 20
156.7282437538695
 30
0.0
 10
195.2855706087691
 20
157.0176832744249
 30
0.0
 10
195.5280370677338
 20
157.3079969450993
 30
0.0
 10
195.5824726126685
 20
157.3731745916316
 30
0.0
 10
195.6343394228199
 20
157.4405865893591
 30
0.0
 10
195.6854184611138
 20
157.5084543965183
 30
0.0
 10
195.7401944590321
 20
157.5812341906365
 30
0.0
 10
195.741526873541
 20
157.6620470229298
 30
0.0
 10
195.6870251297978
 20
157.7339090391752
 30
0.0
  0
CIRCLE
  5
1B6
330
1F
100
AcDbEntity
  8
0
  6
Continuous
 62
     7
370
    15
100
AcDbCircle
 10
206.2237607393
 20
141.0392783505
 30
0.0
 40
2.088907272751243
  0
CIRCLE
  5
1B7
330
1F
100
AcDbEntity
  8
0
  6
Continuous
 62
     7
370
    15
100
AcDbCircle
 10
213.8433428681
 20
127.8417749709
 30
0.0
 40
2.088907272751229
  0
CIRCLE
  5
1B8
330
1F
100
AcDbEntity
  8
0
  6
Continuous
 62
     7
370
    15
100
AcDbCircle
 10
213.8433428681
 20
154.2367817302
 30
0.0
 40
2.088907272751243
  0
LINE
  5
1B9
330
1F
100
AcDbEntity
  8
0
  6
Continuous
 62
     7
370
    15
100
AcDbLine
 10
212.2129248778
 20
168.139278881
 30
0.0
 11
213.7129251237
 21
168.139278881
 31
0.0
  0
SPLINE
  5
1BA
330
1F
100
AcDbEntity
  8
0
  6
Continuous
 62
     7
370
    15
100
AcDbSpline
210
0.0
220
0.0
230
1.0
 70
     8
 71
     3
 72
    14
 73
    10
 74
     0
 42
0.00000001
 43
0.00000001
 40
8.0
 40
8.0
 40
8.0
 40
8.0
 40
9.0
 40
9.0
 40
9.0
 40
10.0
 40
10.0
 40
10.0
 40
11.0
 40
11.0
 40
11.0
 40
11.0
 10
198.1353313273986
 20
161.3679232413147
 30
0.0
 10
198.0687549517963
 20
161.3019463527178
 30
0.0
 10
198.0028479889049
 20
161.2347836314243
 30
0.0
 10
197.942241032157
 20
161.16338860064
 30
0.0
 10
197.7244711053726
 20
160.9068552745023
 30
0.0
 10
197.5090609119235
 20
160.6483200403448
 30
0.0
 10
197.2927584448911
 20
160.3905407981715
 30
0.0
 10
197.2831357543073
 20
160.3790729220979
 30
0.0
 10
197.2735128855845
 20
160.3676051955006
 30
0.0
 10
197.2602519402348
 20
160.3518014162389
 30
0.0
  0
SPLINE
  5
1BB
330
1F
100
AcDbEntity
  8
0
  6
Continuous
 62
     7
370
    15
100
AcDbSpline
210
0.0
220
0.0
230
1.0
 70
     8
 71
     3
 72
     8
 73
     4
 74
     0
 42
0.00000001
 43
0.00000001
 40
7.0
 40
7.0
 40
7.0
 40
7.0
 40
8.0
 40
8.0
 40
8.0
 40
8.0
 10
198.3358877091091
 20
161.3986205967579
 30
0.0
 10
198.2648141522893
 20
161.4333527412106
 30
0.0
 10
198.1931897449765
 20
161.4252600119364
 30
0.0
 10
198.1353313273986
 20
161.3679232413147
 30
0.0
  0
SPLINE
  5
1BC
330
1F
100
AcDbEntity
  8
0
  6
Continuous
 62
     7
370
    15
100
AcDbSpline
210
0.0
220
0.0
230
1.0
 70
     8
 71
     3
 72
    11
 73
     7
 74
     0
 42
0.00000001
 43
0.00000001
 40
5.0
 40
5.0
 40
5.0
 40
5.0
 40
6.0
 40
6.0
 40
6.0
 40
7.0
 40
7.0
 40
7.0
 40
7.0
 10
198.6174861152005
 20
160.9797835363033
 30
0.0
 10
198.652727097001
 20
161.043212880449
 30
0.0
 10
198.6513759910021
 20
161.1119127787737
 30
0.0
 10
198.6073973609551
 20
161.1706536655602
 30
0.0
 10
198.5350953721691
 20
161.2672254254691
 30
0.0
 10
198.444596549461
 20
161.3454979728302
 30
0.0
 10
198.3358877091091
 20
161.3986205967579
 30
0.0
  0
SPLINE
  5
1BD
330
1F
100
AcDbEntity
  8
0
  6
Continuous
 62
     7
370
    15
100
AcDbSpline
210
0.0
220
0.0
230
1.0
 70
     8
 71
     3
 72
    14
 73
    10
 74
     0
 42
0.00000001
 43
0.00000001
 40
2.0
 40
2.0
 40
2.0
 40
2.0
 40
3.0
 40
3.0
 40
3.0
 40
4.0
 40
4.0
 40
4.0
 40
5.0
 40
5.0
 40
5.0
 40
5.0
 10
197.7285103791858
 20
159.9576619605092
 30
0.0
 10
197.7568338881943
 20
159.9333699407265
 30
0.0
 10
197.7700148666238
 20
159.9398752463586
 30
0.0
 10
197.7909999862195
 20
159.9650109589826
 30
0.0
 10
198.0318878366368
 20
160.2535431669164
 30
0.0
 10
198.2743436399969
 20
160.5407694201803
 30
0.0
 10
198.5147606567186
 20
160.8296930617198
 30
0.0
 10
198.5534149485023
 20
160.8761461893954
 30
0.0
 10
198.5881455342563
 20
160.9269748157078
 30
0.0
 10
198.6174861152005
 20
160.9797835363033
 30
0.0
  0
SPLINE
  5
1BE
330
1F
100
AcDbEntity
  8
0
  6
Continuous
 62
     7
370
    15
100
AcDbSpline
210
0.0
220
0.0
230
1.0
 70
     8
 71
     3
 72
    11
 73
     7
 74
     0
 42
0.00000001
 43
0.00000001
 40
0.0
 40
0.0
 40
0.0
 40
0.0
 40
1.0
 40
1.0
 40
1.0
 40
2.0
 40
2.0
 40
2.0
 40
2.0
 10
197.2602519402348
 20
160.3518014162389
 30
0.0
 10
197.2751359878548
 20
160.3393122173706
 30
0.0
 10
197.2847187970617
 20
160.3312712856995
 30
0.0
 10
197.2943016062686
 20
160.3232303540283
 30
0.0
 10
197.4392419707553
 20
160.2016121619032
 30
0.0
 10
197.5848981445927
 20
160.0808285876615
 30
0.0
 10
197.7285103791858
 20
159.9576619605092
 30
0.0
  0
LINE
  5
1BF
330
1F
100
AcDbEntity
  8
0
  6
Continuous
 62
     7
370
    15
100
AcDbLine
 10
200.2468528549
 20
157.7976029289
 30
0.0
 11
200.6394816885
 21
157.117314629
 31
0.0
  0
LINE
  5
1C0
330
1F
100
AcDbEntity
  8
0
  6
Continuous
 62
     7
370
    15
100
AcDbLine
 10
200.6394816885
 20
157.117314629
 30
0.0
 11
200.9880384753
 21
157.5331799609
 31
0.0
  0
LINE
  5
1C1
330
1F
100
AcDbEntity
  8
0
  6
Continuous
 62
     7
370
    15
100
AcDbLine
 10
200.9880384753
 20
157.5331799609
 30
0.0
 11
200.2468528549
 21
157.7976029289
 31
0.0
  0
LINE
  5
1C2
330
1F
100
AcDbEntity
  8
0
  6
Continuous
 62
     7
370
    15
100
AcDbLine
 10
213.7129251237
 20
174.4392774922
 30
0.0
 11
212.2129248778
 21
174.4392774922
 31
0.0
  0
ARC
  5
1C3
330
1F
100
AcDbEntity
  8
0
  6
Continuous
 62
     7
370
    15
100
AcDbCircle
 10
212.212924997
 20
171.2892783505
 30
0.0
 40
3.150000000000006
100
AcDbArc
 50
90.0
 51
270.0
  0
ARC
  5
1C4
330
1F
100
AcDbEntity
  8
0
  6
Continuous
 62
     7
370
    15
100
AcDbCircle
 10
213.712924997
 20
171.2892783505
 30
0.0
 40
3.150000000000006
100
AcDbArc
 50
270.0
 51
90.0
  0
LINE
  5
1C5
330
1F
100
AcDbEntity
  8
0
  6
Continuous
 62
     7
370
    15
100
AcDbLine
 10
213.7129251237
 20
113.93927782
 30
0.0
 11
212.2129248778
 21
113.93927782
 31
0.0
  0
ARC
  5
1C6
330
1F
100
AcDbEntity
  8
0
  6
Continuous
 62
     7
370
    15
100
AcDbCircle
 10
213.712924997
 20
110.7892783505
 30
0.0
 40
3.15000000000002
100
AcDbArc
 50
270.0
 51
90.0
  0
LINE
  5
1C7
330
1F
100
AcDbEntity
  8
0
  6
Continuous
 62
     7
370
    15
100
AcDbLine
 10
212.2129248778
 20
107.6392792088
 30
0.0
 11
213.7129251237
 21
107.6392792088
 31
0.0
  0
LINE
  5
1C8
330
1F
100
AcDbEntity
  8
0
  6
Continuous
 62
     7
370
    15
100
AcDbLine
 10
190.4629255036
 20
144.1892783546
 30
0.0
 11
188.9629261891
 21
144.1892783546
 31
0.0
  0
ARC
  5
1C9
330
1F
100
AcDbEntity
  8
0
  6
Continuous
 62
     7
370
    15
100
AcDbCircle
 10
190.462924997
 20
141.0392783505
 30
0.0
 40
3.150000000000006
100
AcDbArc
 50
270.0
 51
90.0
  0
LINE
  5
1CA
330
1F
100
AcDbEntity
  8
0
  6
Continuous
 62
     7
370
    15
100
AcDbLine
 10
188.9629261891
 20
137.8892783464
 30
0.0
 11
190.4629255036
 21
137.8892783464
 31
0.0
  0
SPLINE
  5
1CB
330
1F
100
AcDbEntity
  8
0
  6
Continuous
 62
     7
370
    15
100
AcDbSpline
210
0.0
220
0.0
230
1.0
 70
     8
 71
     3
 72
    11
 73
     7
 74
     0
 42
0.00000001
 43
0.00000001
 40
8.0
 40
8.0
 40
8.0
 40
8.0
 40
9.0
 40
9.0
 40
9.0
 40
10.0
 40
10.0
 40
10.0
 40
10.0
 10
203.0358283841213
 20
165.2373199817263
 30
0.0
 10
203.1040242806766
 20
165.3221359025344
 30
0.0
 10
203.1698482702274
 20
165.4099814946929
 30
0.0
 10
203.2264291400197
 20
165.5027513350044
 30
0.0
 10
203.3094574593943
 20
165.6388845042517
 30
0.0
 10
203.3022927937872
 20
165.7394360909514
 30
0.0
 10
203.1968811834814
 20
165.8576848316106
 30
0.0
  0
LINE
  5
1CC
330
1F
100
AcDbEntity
  8
0
  6
Continuous
 62
     7
370
    15
100
AcDbLine
 10
201.8043706516
 20
165.7908596021
 30
0.0
 11
201.8096363495
 21
165.7862681818
 31
0.0
  0
SPLINE
  5
1CD
330
1F
100
AcDbEntity
  8
0
  6
Continuous
 62
     7
370
    15
100
AcDbSpline
210
0.0
220
0.0
230
1.0
 70
     8
 71
     3
 72
    17
 73
    13
 74
     0
 42
0.00000001
 43
0.00000001
 40
10.0
 40
10.0
 40
10.0
 40
10.0
 40
11.0
 40
11.0
 40
11.0
 40
12.0
 40
12.0
 40
12.0
 40
13.0
 40
13.0
 40
13.0
 40
14.0
 40
14.0
 40
14.0
 40
14.0
 10
203.1968811834814
 20
165.8576848316106
 30
0.0
 10
203.0304730252515
 20
166.0443557916969
 30
0.0
 10
202.8352182073781
 20
166.1988442488741
 30
0.0
 10
202.6239559195683
 20
166.3318206443992
 30
0.0
 10
202.5052411603125
 20
166.406544289602
 30
0.0
 10
202.3859393395795
 20
166.4033801681655
 30
0.0
 10
202.2761289348615
 20
166.3081935617899
 30
0.0
 10
202.2531493658701
 20
166.2882745964769
 30
0.0
 10
202.2303871254139
 20
166.26771670977
 30
0.0
 10
202.2101087472394
 20
166.2451304710179
 30
0.0
 10
202.0744717709365
 20
166.0940578287156
 30
0.0
 10
201.9395346818126
 20
165.9423566265592
 30
0.0
 10
201.8043714054683
 20
165.7908597891149
 30
0.0
  0
SPLINE
  5
1CE
330
1F
100
AcDbEntity
  8
0
  6
Continuous
 62
     7
370
    15
100
AcDbSpline
210
0.0
220
0.0
230
1.0
 70
     8
 71
     3
 72
    17
 73
    13
 74
     0
 42
0.00000001
 43
0.00000001
 40
4.0
 40
4.0
 40
4.0
 40
4.0
 40
5.0
 40
5.0
 40
5.0
 40
6.0
 40
6.0
 40
6.0
 40
7.0
 40
7.0
 40
7.0
 40
8.0
 40
8.0
 40
8.0
 40
8.0
 10
201.3874099525012
 20
164.8967414182299
 30
0.0
 10
201.550228230891
 20
164.6997744546292
 30
0.0
 10
201.7445197599098
 20
164.5359770930781
 30
0.0
 10
201.9577637048157
 20
164.3967868499126
 30
0.0
 10
202.0933461243993
 20
164.3082884057225
 30
0.0
 10
202.2095416827385
 20
164.3192025887133
 30
0.0
 10
202.3285594199945
 20
164.4309970609798
 30
0.0
 10
202.4374011872935
 20
164.5332328810022
 30
0.0
 10
202.5383425506751
 20
164.6445725853409
 30
0.0
 10
202.6364173485396
 20
164.7574190726465
 30
0.0
 10
202.772918329448
 20
164.9144791485809
 30
0.0
 10
202.9054265015409
 20
165.075134869085
 30
0.0
 10
203.0358283841213
 20
165.2373199817263
 30
0.0
  0
SPLINE
  5
1CF
330
1F
100
AcDbEntity
  8
0
  6
Continuous
 62
     7
370
    15
100
AcDbSpline
210
0.0
220
0.0
230
1.0
 70
     8
 71
     3
 72
    14
 73
    10
 74
     0
 42
0.00000001
 43
0.00000001
 40
1.0
 40
1.0
 40
1.0
 40
1.0
 40
2.0
 40
2.0
 40
2.0
 40
3.0
 40
3.0
 40
3.0
 40
4.0
 40
4.0
 40
4.0
 40
4.0
 10
201.8096369076682
 20
165.7862690834903
 30
0.0
 10
201.7419109596252
 20
165.705556441598
 30
0.0
 10
201.6722467169461
 20
165.6263755098768
 30
0.0
 10
201.6069600131952
 20
165.5437350963065
 30
0.0
 10
201.5291413376096
 20
165.4452317095686
 30
0.0
 10
201.4529460008235
 20
165.3452836102819
 30
0.0
 10
201.3799426033645
 20
165.2431792869285
 30
0.0
 10
201.2952348474315
 20
165.1247045361114
 30
0.0
 10
201.2953000668116
 20
165.0081708741533
 30
0.0
 10
201.3874099525012
 20
164.8967414182299
 30
0.0
  0
LINE
  5
1D0
330
1F
100
AcDbEntity
  8
0
  6
Continuous
 62
     7
370
    15
100
AcDbLine
 10
221.462924997
 20
183.8913600788
 30
0.0
 11
221.462924997
 21
188.7886238958
 31
0.0
  0
INSERT
  5
1DC
330
1F
100
AcDbEntity
  8
0
  6
Continuous
 62
     7
370
     0
100
AcDbBlockReference
  2
SW_CENTERMARKSYMBOL_0
 10
206.2237607393
 20
141.0392783505
 30
0.0
  0
INSERT
  5
1E8
330
1F
100
AcDbEntity
  8
0
  6
Continuous
 62
     7
370
     0
100
AcDbBlockReference
  2
SW_CENTERMARKSYMBOL_1
 10
213.8433428681
 20
154.2367817302
 30
0.0
  0
INSERT
  5
1F4
330
1F
100
AcDbEntity
  8
0
  6
Continuous
 62
     7
370
     0
100
AcDbBlockReference
  2
SW_CENTERMARKSYMBOL_2
 10
213.8433428681
 20
127.8417749709
 30
0.0
  0
ENDSEC
  0
SECTION
  2
OBJECTS
  0
DICTIONARY
  5
C
330
0
100
AcDbDictionary
281
     1
  3
ACAD_GROUP
350
D
  3
ACAD_LAYOUT
350
1A
  3
ACAD_MLEADERSTYLE
350
1F7
  3
ACAD_MLINESTYLE
350
17
  3
ACAD_PLOTSETTINGS
350
19
  3
ACAD_PLOTSTYLENAME
350
E
  3
ACAD_VISUALSTYLE
350
2A
  3
AcDbVariableDictionary
350
1F5
  0
DICTIONARY
  5
D
102
{ACAD_REACTORS
330
C
102
}
330
C
100
AcDbDictionary
281
     1
  0
DICTIONARY
  5
1A
102
{ACAD_REACTORS
330
C
102
}
330
C
100
AcDbDictionary
281
     1
  3
Layout1
350
1E
  3
Layout2
350
26
  3
Model
350
22
  0
DICTIONARY
  5
1F7
102
{ACAD_REACTORS
330
C
102
}
330
C
100
AcDbDictionary
281
     1
  0
DICTIONARY
  5
17
102
{ACAD_REACTORS
330
C
102
}
330
C
100
AcDbDictionary
281
     1
  3
Standard
350
18
  0
DICTIONARY
  5
19
102
{ACAD_REACTORS
330
C
102
}
330
C
100
AcDbDictionary
281
     1
  0
ACDBDICTIONARYWDFLT
  5
E
102
{ACAD_REACTORS
330
C
102
}
330
C
100
AcDbDictionary
281
     1
  3
Normal
350
F
100
AcDbDictionaryWithDefault
340
F
  0
DICTIONARY
  5
2A
102
{ACAD_REACTORS
330
C
102
}
330
C
100
AcDbDictionary
281
     1
  3
2dWireframe
350
2F
  3
3D Hidden
350
31
  3
3dWireframe
350
30
  3
Basic
350
32
  3
Brighten
350
36
  3
ColorChange
350
3A
  3
Conceptual
350
34
  3
Dim
350
35
  3
Facepattern
350
39
  3
Flat
350
2B
  3
FlatWithEdges
350
2C
  3
Gouraud
350
2D
  3
GouraudWithEdges
350
2E
  3
Linepattern
350
38
  3
Realistic
350
33
  3
Thicken
350
37
  0
DICTIONARY
  5
1F5
102
{ACAD_REACTORS
330
C
102
}
330
C
100
AcDbDictionary
281
     1
  3
DIMASSOC
350
1FA
  3
HIDETEXT
350
1FB
  3
PSOLHEIGHT
350
1F9
  3
PSOLWIDTH
350
1F8
  0
LAYOUT
  5
1E
102
{ACAD_REACTORS
330
1A
102
}
330
1A
100
AcDbPlotSettings
  1

  2
none_device
  4

  6

 40
0.0
 41
0.0
 42
0.0
 43
0.0
 44
0.0
 45
0.0
 46
0.0
 47
0.0
 48
0.0
 49
0.0
140
0.0
141
0.0
142
1.0
143
1.0
 70
   688
 72
     0
 73
     0
 74
     5
  7

 75
    16
147
1.0
148
0.0
149
0.0
100
AcDbLayout
  1
Layout1
 70
     1
 71
     1
 10
0.0
 20
0.0
 11
420.0
 21
297.0
 12
0.0
 22
0.0
 32
0.0
 14
1.0000000000E+20
 24
1.0000000000E+20
 34
1.0000000000E+20
 15
-1.0000000000E+20
 25
-1.0000000000E+20
 35
-1.0000000000E+20
146
0.0
 13
0.0
 23
0.0
 33
0.0
 16
1.0
 26
0.0
 36
0.0
 17
0.0
 27
1.0
 37
0.0
 76
     0
330
1B
  0
LAYOUT
  5
26
102
{ACAD_REACTORS
330
1A
102
}
330
1A
100
AcDbPlotSettings
  1

  2
none_device
  4

  6

 40
0.0
 41
0.0
 42
0.0
 43
0.0
 44
0.0
 45
0.0
 46
0.0
 47
0.0
 48
0.0
 49
0.0
140
0.0
141
0.0
142
1.0
143
1.0
 70
   688
 72
     0
 73
     0
 74
     5
  7

 75
    16
147
1.0
148
0.0
149
0.0
100
AcDbLayout
  1
Layout2
 70
     1
 71
     2
 10
0.0
 20
0.0
 11
0.0
 21
0.0
 12
0.0
 22
0.0
 32
0.0
 14
0.0
 24
0.0
 34
0.0
 15
0.0
 25
0.0
 35
0.0
146
0.0
 13
0.0
 23
0.0
 33
0.0
 16
1.0
 26
0.0
 36
0.0
 17
0.0
 27
1.0
 37
0.0
 76
     0
330
23
  0
LAYOUT
  5
22
102
{ACAD_REACTORS
330
1A
102
}
330
1A
100
AcDbPlotSettings
  1

  2
none_device
  4

  6

 40
0.0
 41
0.0
 42
0.0
 43
0.0
 44
0.0
 45
0.0
 46
0.0
 47
0.0
 48
0.0
 49
0.0
140
0.0
141
0.0
142
1.0
143
1.0
 70
  1712
 72
     0
 73
     0
 74
     0
  7

 75
     0
147
1.0
148
0.0
149
0.0
100
AcDbLayout
  1
Model
 70
     1
 71
     0
 10
0.0
 20
0.0
 11
420.0
 21
297.0
 12
0.0
 22
0.0
 32
0.0
 14
0.0
 24
0.0
 34
0.0
 15
420.0
 25
297.0
 35
0.0
146
0.0
 13
0.0
 23
0.0
 33
0.0
 16
1.0
 26
0.0
 36
0.0
 17
0.0
 27
1.0
 37
0.0
 76
     0
330
1F
331
29
  0
MLINESTYLE
  5
18
102
{ACAD_REACTORS
330
17
102
}
330
17
100
AcDbMlineStyle
  2
Standard
 70
     0
  3

 62
   256
 51
90.0
 52
90.0
 71
     2
 49
0.5
 62
   256
  6
BYLAYER
 49
-0.5
 62
   256
  6
BYLAYER
  0
ACDBPLACEHOLDER
  5
F
102
{ACAD_REACTORS
330
E
102
}
330
E
  0
VISUALSTYLE
  5
2F
102
{ACAD_REACTORS
330
2A
102
}
330
2A
100
AcDbVisualStyle
  2
2dWireframe
 70
     4
 71
     0
 72
     2
 73
     0
 90
        0
 40
-0.6
 41
-30.0
 62
     5
 63
     7
 74
     1
 91
        4
 64
     7
 65
   257
 75
     1
175
     1
 42
1.0
 92
        0
 66
   257
 43
1.0
 76
     1
 77
     6
 78
     2
 67
     7
 79
     5
170
     0
171
     0
290
     0
174
     0
 93
        1
 44
0.0
173
     0
291
     0
 45
0.0
1001
ACAD
1000
AcDbSavedByObjectVersion
1070
     0
  0
VISUALSTYLE
  5
31
102
{ACAD_REACTORS
330
2A
102
}
330
2A
100
AcDbVisualStyle
  2
3D Hidden
 70
     6
 71
     1
 72
     2
 73
     2
 90
        0
 40
-0.6
 41
-30.0
 62
     5
 63
     7
 74
     2
 91
        2
 64
     7
 65
   257
 75
     2
175
     1
 42
40.0
 92
        0
 66
   257
 43
1.0
 76
     1
 77
     6
 78
     2
 67
     7
 79
     3
170
     0
171
     0
290
     0
174
     0
 93
        1
 44
0.0
173
     0
291
     0
 45
0.0
1001
ACAD
1000
AcDbSavedByObjectVersion
1070
     0
  0
VISUALSTYLE
  5
30
102
{ACAD_REACTORS
330
2A
102
}
330
2A
100
AcDbVisualStyle
  2
3dWireframe
 70
     5
 71
     0
 72
     2
 73
     0
 90
        0
 40
-0.6
 41
-30.0
 62
     5
 63
     7
 74
     1
 91
        4
 64
     7
 65
   257
 75
     1
175
     1
 42
1.0
 92
        0
 66
   257
 43
1.0
 76
     1
 77
     6
 78
     2
 67
     7
 79
     5
170
     0
171
     0
290
     0
174
     0
 93
        1
 44
0.0
173
     0
291
     0
 45
0.0
1001
ACAD
1000
AcDbSavedByObjectVersion
1070
     0
  0
VISUALSTYLE
  5
32
102
{ACAD_REACTORS
330
2A
102
}
330
2A
100
AcDbVisualStyle
  2
Basic
 70
     7
 71
     1
 72
     0
 73
     1
 90
        0
 40
-0.6
 41
-30.0
 62
     5
 63
     7
 74
     0
 91
        4
 64
     7
 65
   257
 75
     1
175
     1
 42
1.0
 92
        8
 66
     7
 43
1.0
 76
     1
 77
     6
 78
     2
 67
     7
 79
     5
170
     0
171
     0
290
     0
174
     0
 93
        1
 44
0.0
173
     0
291
     1
 45
0.0
1001
ACAD
1000
AcDbSavedByObjectVersion
1070
     0
  0
VISUALSTYLE
  5
36
102
{ACAD_REACTORS
330
2A
102
}
330
2A
100
AcDbVisualStyle
  2
Brighten
 70
    12
 71
     2
 72
     2
 73
     0
 90
        0
 40
-0.6
 41
-30.0
 62
     5
 63
     7
 74
     1
 91
        4
 64
     7
 65
   257
 75
     1
175
     1
 42
1.0
 92
        8
 66
     7
 43
1.0
 76
     1
 77
     6
 78
     2
 67
     7
 79
     5
170
     0
171
     0
290
     0
174
     0
 93
        1
 44
50.0
173
     0
291
     1
 45
0.0
1001
ACAD
1000
AcDbSavedByObjectVersion
1070
     0
  0
VISUALSTYLE
  5
3A
102
{ACAD_REACTORS
330
2A
102
}
330
2A
100
AcDbVisualStyle
  2
ColorChange
 70
    16
 71
     2
 72
     2
 73
     3
 90
        0
 40
-0.6
 41
-30.0
 62
     5
 63
     8
 74
     1
 91
        4
 64
     7
 65
   257
 75
     1
175
     1
 42
1.0
 92
        8
 66
     8
 43
1.0
 76
     1
 77
     6
 78
     2
 67
     7
 79
     5
170
     0
171
     0
290
     0
174
     0
 93
        1
 44
0.0
173
     0
291
     1
 45
0.0
1001
ACAD
1000
AcDbSavedByObjectVersion
1070
     0
  0
VISUALSTYLE
  5
34
102
{ACAD_REACTORS
330
2A
102
}
330
2A
100
AcDbVisualStyle
  2
Conceptual
 70
     9
 71
     3
 72
     2
 73
     0
 90
        0
 40
-0.6
 41
-30.0
 62
     5
 63
     7
 74
     2
 91
        2
 64
     7
 65
   257
 75
     1
175
     1
 42
40.0
 92
        8
 66
     7
 43
1.0
 76
     1
 77
     6
 78
     2
 67
     7
 79
     3
170
     0
171
     0
290
     0
174
     0
 93
        1
 44
0.0
173
     0
291
     0
 45
0.0
1001
ACAD
1000
AcDbSavedByObjectVersion
1070
     0
  0
VISUALSTYLE
  5
35
102
{ACAD_REACTORS
330
2A
102
}
330
2A
100
AcDbVisualStyle
  2
Dim
 70
    11
 71
     2
 72
     2
 73
     0
 90
        0
 40
-0.6
 41
-30.0
 62
     5
 63
     7
 74
     1
 91
        4
 64
     7
 65
   257
 75
     1
175
     1
 42
1.0
 92
        8
 66
     7
 43
1.0
 76
     1
 77
     6
 78
     2
 67
     7
 79
     5
170
     0
171
     0
290
     0
174
     0
 93
        1
 44
-50.0
173
     0
291
     1
 45
0.0
1001
ACAD
1000
AcDbSavedByObjectVersion
1070
     0
  0
VISUALSTYLE
  5
39
102
{ACAD_REACTORS
330
2A
102
}
330
2A
100
AcDbVisualStyle
  2
Facepattern
 70
    15
 71
     2
 72
     2
 73
     0
 90
        0
 40
-0.6
 41
-30.0
 62
     5
 63
     7
 74
     1
 91
        4
 64
     7
 65
   257
 75
     1
175
     1
 42
1.0
 92
        8
 66
     7
 43
1.0
 76
     1
 77
     6
 78
     2
 67
     7
 79
     5
170
     0
171
     0
290
     0
174
     0
 93
        1
 44
0.0
173
     0
291
     1
 45
0.0
1001
ACAD
1000
AcDbSavedByObjectVersion
1070
     0
  0
VISUALSTYLE
  5
2B
102
{ACAD_REACTORS
330
2A
102
}
330
2A
100
AcDbVisualStyle
  2
Flat
 70
     0
 71
     2
 72
     1
 73
     1
 90
        2
 40
-0.6
 41
30.0
 62
     5
 63
     7
 74
     0
 91
        4
 64
     7
 65
   257
 75
     1
175
     1
 42
1.0
 92
        8
 66
     7
 43
1.0
 76
     1
 77
     6
 78
     2
 67
     7
 79
     5
170
     0
171
     0
290
     0
174
     0
 93
       13
 44
0.0
173
     0
291
     1
 45
0.0
1001
ACAD
1000
AcDbSavedByObjectVersion
1070
     0
  0
VISUALSTYLE
  5
2C
102
{ACAD_REACTORS
330
2A
102
}
330
2A
100
AcDbVisualStyle
  2
FlatWithEdges
 70
     1
 71
     2
 72
     1
 73
     1
 90
        2
 40
-0.6
 41
30.0
 62
     5
 63
     7
 74
     1
 91
        4
 64
     7
 65
   257
 75
     1
175
     1
 42
1.0
 92
        0
 66
   257
 43
1.0
 76
     1
 77
     6
 78
     2
 67
     7
 79
     5
170
     0
171
     0
290
     0
174
     0
 93
       13
 44
0.0
173
     0
291
     1
 45
0.0
1001
ACAD
1000
AcDbSavedByObjectVersion
1070
     0
  0
VISUALSTYLE
  5
2D
102
{ACAD_REACTORS
330
2A
102
}
330
2A
100
AcDbVisualStyle
  2
Gouraud
 70
     2
 71
     2
 72
     2
 73
     1
 90
        2
 40
-0.6
 41
30.0
 62
     5
 63
     7
 74
     0
 91
        4
 64
     7
 65
   257
 75
     1
175
     1
 42
1.0
 92
        0
 66
     7
 43
1.0
 76
     1
 77
     6
 78
     2
 67
     7
 79
     5
170
     0
171
     0
290
     0
174
     0
 93
       13
 44
0.0
173
     0
291
     1
 45
0.0
1001
ACAD
1000
AcDbSavedByObjectVersion
1070
     0
  0
VISUALSTYLE
  5
2E
102
{ACAD_REACTORS
330
2A
102
}
330
2A
100
AcDbVisualStyle
  2
GouraudWithEdges
 70
     3
 71
     2
 72
     2
 73
     1
 90
        2
 40
-0.6
 41
30.0
 62
     5
 63
     7
 74
     1
 91
        4
 64
     7
 65
   257
 75
     1
175
     1
 42
1.0
 92
        0
 66
   257
 43
1.0
 76
     1
 77
     6
 78
     2
 67
     7
 79
     5
170
     0
171
     0
290
     0
174
     0
 93
       13
 44
0.0
173
     0
291
     1
 45
0.0
1001
ACAD
1000
AcDbSavedByObjectVersion
1070
     0
  0
VISUALSTYLE
  5
38
102
{ACAD_REACTORS
330
2A
102
}
330
2A
100
AcDbVisualStyle
  2
Linepattern
 70
    14
 71
     2
 72
     2
 73
     0
 90
        0
 40
-0.6
 41
-30.0
 62
     5
 63
     7
 74
     1
 91
        4
 64
     7
 65
   257
 75
     7
175
     7
 42
1.0
 92
        8
 66
     7
 43
1.0
 76
     1
 77
     6
 78
     2
 67
     7
 79
     5
170
     0
171
     0
290
     0
174
     0
 93
        1
 44
0.0
173
     0
291
     1
 45
0.0
1001
ACAD
1000
AcDbSavedByObjectVersion
1070
     0
  0
VISUALSTYLE
  5
33
102
{ACAD_REACTORS
330
2A
102
}
330
2A
100
AcDbVisualStyle
  2
Realistic
 70
     8
 71
     2
 72
     2
 73
     0
 90
        0
 40
-0.6
 41
-30.0
 62
     5
 63
     7
 74
     1
 91
        0
 64
     7
 65
   257
 75
     1
175
     1
 42
1.0
 92
        8
 66
     8
 43
1.0
 76
     1
 77
     6
 78
     2
 67
     7
 79
     5
170
     0
171
     0
290
     0
174
     0
 93
       13
 44
0.0
173
     0
291
     0
 45
0.0
1001
ACAD
1000
AcDbSavedByObjectVersion
1070
     0
  0
VISUALSTYLE
  5
37
102
{ACAD_REACTORS
330
2A
102
}
330
2A
100
AcDbVisualStyle
  2
Thicken
 70
    13
 71
     2
 72
     2
 73
     0
 90
        0
 40
-0.6
 41
-30.0
 62
     5
 63
     7
 74
     1
 91
        4
 64
     7
 65
   257
 75
     1
175
     1
 42
1.0
 92
       12
 66
     7
 43
1.0
 76
     1
 77
     6
 78
     2
 67
     7
 79
     5
170
     0
171
     0
290
     0
174
     0
 93
        1
 44
0.0
173
     0
291
     1
 45
0.0
1001
ACAD
1000
AcDbSavedByObjectVersion
1070
     0
  0
DICTIONARYVAR
  5
1FA
102
{ACAD_REACTORS
330
1F5
102
}
330
1F5
100
DictionaryVariables
280
     0
  1
2
  0
DICTIONARYVAR
  5
1FB
102
{ACAD_REACTORS
330
1F5
102
}
330
1F5
100
DictionaryVariables
280
     0
  1
1
  0
DICTIONARYVAR
  5
1F9
102
{ACAD_REACTORS
330
1F5
102
}
330
1F5
100
DictionaryVariables
280
     0
  1
80.000000
  0
DICTIONARYVAR
  5
1F8
102
{ACAD_REACTORS
330
1F5
102
}
330
1F5
100
DictionaryVariables
280
     0
  1
5.000000
  0
ENDSEC
  0
EOF
