  0
SECTION
  2
HEADER
  9
$ACADVER
  1
AC1015
  9
$ACADMAINTVER
 70
     6
  9
$DWGCODEPAGE
  3
ANSI_1252
  9
$INSBASE
 10
0.0
 20
0.0
 30
0.0
  9
$EXTMIN
 10
-3.0
 20
-6.052974507
 30
0.0
  9
$EXTMAX
 10
94.7
 20
18.947025493
 30
0.0
  9
$LIMMIN
 10
0.0
 20
0.0
  9
$LIMMAX
 10
420.0
 20
297.0
  9
$ORTHOMODE
 70
     0
  9
$REGENMODE
 70
     1
  9
$FILLMODE
 70
     1
  9
$QTEXTMODE
 70
     0
  9
$MIRRTEXT
 70
     1
  9
$LTSCALE
 40
1.0
  9
$ATTMODE
 70
     1
  9
$TEXTSIZE
 40
3.5
  9
$TRACEWID
 40
1.0
  9
$TEXTSTYLE
  7
Standard
  9
$CLAYER
  8
0
  9
$CELTYPE
  6
ByLayer
  9
$CECOLOR
 62
   256
  9
$CELTSCALE
 40
1.0
  9
$DISPSILH
 70
     0
  9
$DIMSCALE
 40
1.0
  9
$DIMASZ
 40
3.302
  9
$DIMEXO
 40
1.0
  9
$DIMDLI
 40
3.75
  9
$DIMRND
 40
0.0
  9
$DIMDLE
 40
0.0
  9
$DIMEXE
 40
1.0
  9
$DIMTP
 40
0.0
  9
$DIMTM
 40
0.0
  9
$DIMTXT
 40
3.5
  9
$DIMCEN
 40
2.5
  9
$DIMTSZ
 40
0.0
  9
$DIMTOL
 70
     0
  9
$DIMLIM
 70
     0
  9
$DIMTIH
 70
     1
  9
$DIMTOH
 70
     1
  9
$DIMSE1
 70
     0
  9
$DIMSE2
 70
     0
  9
$DIMTAD
 70
     1
  9
$DIMZIN
 70
     0
  9
$DIMBLK
  1

  9
$DIMASO
 70
     1
  9
$DIMSHO
 70
     1
  9
$DIMPOST
  1

  9
$DIMAPOST
  1

  9
$DIMALT
 70
     0
  9
$DIMALTD
 70
     3
  9
$DIMALTF
 40
0.0393700787
  9
$DIMLFAC
 40
1.0
  9
$DIMTOFL
 70
     1
  9
$DIMTVP
 40
0.0
  9
$DIMTIX
 70
     0
  9
$DIMSOXD
 70
     0
  9
$DIMSAH
 70
     0
  9
$DIMBLK1
  1

  9
$DIMBLK2
  1

  9
$DIMSTYLE
  2
ISO-25
  9
$DIMCLRD
 70
     0
  9
$DIMCLRE
 70
     0
  9
$DIMCLRT
 70
     0
  9
$DIMTFAC
 40
1.0
  9
$DIMGAP
 40
1.524
  9
$DIMJUST
 70
     0
  9
$DIMSD1
 70
     0
  9
$DIMSD2
 70
     0
  9
$DIMTOLJ
 70
     0
  9
$DIMTZIN
 70
     0
  9
$DIMALTZ
 70
     0
  9
$DIMALTTZ
 70
     0
  9
$DIMUPT
 70
     0
  9
$DIMDEC
 70
     3
  9
$DIMTDEC
 70
     3
  9
$DIMALTU
 70
     2
  9
$DIMALTTD
 70
     3
  9
$DIMTXSTY
  7
Standard
  9
$DIMAUNIT
 70
     0
  9
$DIMADEC
 70
     2
  9
$DIMALTRND
 40
0.0
  9
$DIMAZIN
 70
     0
  9
$DIMDSEP
 70
    44
  9
$DIMATFIT
 70
     3
  9
$DIMFRAC
 70
     0
  9
$DIMLDRBLK
  1

  9
$DIMLUNIT
 70
     2
  9
$DIMLWD
 70
    -2
  9
$DIMLWE
 70
    -2
  9
$DIMTMOVE
 70
     0
  9
$LUNITS
 70
     2
  9
$LUPREC
 70
     2
  9
$SKETCHINC
 40
1.0
  9
$FILLETRAD
 40
10.0
  9
$AUNITS
 70
     0
  9
$AUPREC
 70
     2
  9
$MENU
  1
.
  9
$ELEVATION
 40
0.0
  9
$PELEVATION
 40
0.0
  9
$THICKNESS
 40
0.0
  9
$LIMCHECK
 70
     0
  9
$CHAMFERA
 40
10.0
  9
$CHAMFERB
 40
10.0
  9
$CHAMFERC
 40
20.0
  9
$CHAMFERD
 40
0.0
  9
$SKPOLY
 70
     0
  9
$TDCREATE
 40
2457184.508691852
  9
$TDUCREATE
 40
2457184.092025185
  9
$TDUPDATE
 40
2457184.508691864
  9
$TDUUPDATE
 40
2457184.092025197
  9
$TDINDWG
 40
0.0000000116
  9
$TDUSRTIMER
 40
0.0000000116
  9
$USRTIMER
 70
     1
  9
$ANGBASE
 50
0.0
  9
$ANGDIR
 70
     0
  9
$PDMODE
 70
     0
  9
$PDSIZE
 40
-1.0
  9
$PLINEWID
 40
0.0
  9
$SPLFRAME
 70
     0
  9
$SPLINETYPE
 70
     6
  9
$SPLINESEGS
 70
     8
  9
$HANDSEED
  5
18D
  9
$SURFTAB1
 70
     6
  9
$SURFTAB2
 70
     6
  9
$SURFTYPE
 70
     6
  9
$SURFU
 70
     6
  9
$SURFV
 70
     6
  9
$UCSBASE
  2

  9
$UCSNAME
  2

  9
$UCSORG
 10
0.0
 20
0.0
 30
0.0
  9
$UCSXDIR
 10
1.0
 20
0.0
 30
0.0
  9
$UCSYDIR
 10
0.0
 20
1.0
 30
0.0
  9
$UCSORTHOREF
  2

  9
$UCSORTHOVIEW
 70
     0
  9
$UCSORGTOP
 10
0.0
 20
0.0
 30
0.0
  9
$UCSORGBOTTOM
 10
0.0
 20
0.0
 30
0.0
  9
$UCSORGLEFT
 10
0.0
 20
0.0
 30
0.0
  9
$UCSORGRIGHT
 10
0.0
 20
0.0
 30
0.0
  9
$UCSORGFRONT
 10
0.0
 20
0.0
 30
0.0
  9
$UCSORGBACK
 10
0.0
 20
0.0
 30
0.0
  9
$PUCSBASE
  2

  9
$PUCSNAME
  2

  9
$PUCSORG
 10
0.0
 20
0.0
 30
0.0
  9
$PUCSXDIR
 10
1.0
 20
0.0
 30
0.0
  9
$PUCSYDIR
 10
0.0
 20
1.0
 30
0.0
  9
$PUCSORTHOREF
  2

  9
$PUCSORTHOVIEW
 70
     0
  9
$PUCSORGTOP
 10
0.0
 20
0.0
 30
0.0
  9
$PUCSORGBOTTOM
 10
0.0
 20
0.0
 30
0.0
  9
$PUCSORGLEFT
 10
0.0
 20
0.0
 30
0.0
  9
$PUCSORGRIGHT
 10
0.0
 20
0.0
 30
0.0
  9
$PUCSORGFRONT
 10
0.0
 20
0.0
 30
0.0
  9
$PUCSORGBACK
 10
0.0
 20
0.0
 30
0.0
  9
$USERI1
 70
     0
  9
$USERI2
 70
     0
  9
$USERI3
 70
     0
  9
$USERI4
 70
     0
  9
$USERI5
 70
     0
  9
$USERR1
 40
0.0
  9
$USERR2
 40
0.0
  9
$USERR3
 40
0.0
  9
$USERR4
 40
0.0
  9
$USERR5
 40
0.0
  9
$WORLDVIEW
 70
     1
  9
$SHADEDGE
 70
     3
  9
$SHADEDIF
 70
    70
  9
$TILEMODE
 70
     1
  9
$MAXACTVP
 70
    64
  9
$PINSBASE
 10
0.0
 20
0.0
 30
0.0
  9
$PLIMCHECK
 70
     0
  9
$PEXTMIN
 10
1.0000000000E+20
 20
1.0000000000E+20
 30
1.0000000000E+20
  9
$PEXTMAX
 10
-1.0000000000E+20
 20
-1.0000000000E+20
 30
-1.0000000000E+20
  9
$PLIMMIN
 10
0.0
 20
0.0
  9
$PLIMMAX
 10
420.0
 20
297.0
  9
$UNITMODE
 70
     0
  9
$VISRETAIN
 70
     1
  9
$PLINEGEN
 70
     0
  9
$PSLTSCALE
 70
     1
  9
$TREEDEPTH
 70
  3020
  9
$CMLSTYLE
  2
Standard
  9
$CMLJUST
 70
     0
  9
$CMLSCALE
 40
20.0
  9
$PROXYGRAPHICS
 70
     1
  9
$MEASUREMENT
 70
     1
  9
$CELWEIGHT
370
    -1
  9
$ENDCAPS
280
     0
  9
$JOINSTYLE
280
     0
  9
$LWDISPLAY
290
     1
  9
$INSUNITS
 70
     4
  9
$HYPERLINKBASE
  1

  9
$STYLESHEET
  1

  9
$XEDIT
290
     1
  9
$CEPSNTYPE
380
     0
  9
$PSTYLEMODE
290
     1
  9
$FINGERPRINTGUID
  2
{9E5074BC-EEFF-4801-B0B4-F463737DCFE2}
  9
$VERSIONGUID
  2
{FAEB1C32-E019-11D5-929B-00C0DF256EC4}
  9
$EXTNAMES
290
     1
  9
$PSVPSCALE
 40
0.0
  9
$OLESTARTUP
290
     0
  0
ENDSEC
  0
SECTION
  2
CLASSES
  0
CLASS
  1
ACDBDICTIONARYWDFLT
  2
AcDbDictionaryWithDefault
  3
ObjectDBX Classes
 90
        0
280
     0
281
     0
  0
CLASS
  1
VISUALSTYLE
  2
AcDbVisualStyle
  3
ObjectDBX Classes
 90
     4095
280
     0
281
     0
  0
CLASS
  1
SCALE
  2
AcDbScale
  3
ObjectDBX Classes
 90
     1153
280
     0
281
     0
  0
CLASS
  1
DICTIONARYVAR
  2
AcDbDictionaryVar
  3
ObjectDBX Classes
 90
        0
280
     0
281
     0
  0
CLASS
  1
ACDBPLACEHOLDER
  2
AcDbPlaceHolder
  3
ObjectDBX Classes
 90
        0
280
     0
281
     0
  0
CLASS
  1
LAYOUT
  2
AcDbLayout
  3
ObjectDBX Classes
 90
        0
280
     0
281
     0
  0
ENDSEC
  0
SECTION
  2
TABLES
  0
TABLE
  2
VPORT
  5
8
330
0
100
AcDbSymbolTable
 70
     1
  0
VPORT
  5
29
330
8
100
AcDbSymbolTableRecord
100
AcDbViewportTableRecord
  2
*Active
 70
     0
 10
0.0
 20
0.0
 11
1.0
 21
1.0
 12
45.85
 22
6.447025493
 13
0.0
 23
0.0
 14
10.0
 24
10.0
 15
10.0
 25
10.0
 16
0.0
 26
0.0
 36
1.0
 17
0.0
 27
0.0
 37
0.0
 40
25.5
 41
3.908
 42
50.0
 43
0.0
 44
0.0
 50
0.0
 51
0.0
 71
     0
 72
   100
 73
     1
 74
     3
 75
     0
 76
     0
 77
     0
 78
     0
281
     0
 65
     1
110
0.0
120
0.0
130
0.0
111
1.0
121
0.0
131
0.0
112
0.0
122
1.0
132
0.0
 79
     0
146
0.0
  0
ENDTAB
  0
TABLE
  2
LTYPE
  5
5
330
0
100
AcDbSymbolTable
 70
     6
  0
LTYPE
  5
14
330
5
100
AcDbSymbolTableRecord
100
AcDbLinetypeTableRecord
  2
ByBlock
 70
     0
  3

 72
    65
 73
     0
 40
0.0
  0
LTYPE
  5
15
330
5
100
AcDbSymbolTableRecord
100
AcDbLinetypeTableRecord
  2
ByLayer
 70
     0
  3

 72
    65
 73
     0
 40
0.0
  0
LTYPE
  5
16
330
5
100
AcDbSymbolTableRecord
100
AcDbLinetypeTableRecord
  2
Continuous
 70
     0
  3
Solid line
 72
    65
 73
     0
 40
0.0
  0
LTYPE
  5
3B
330
5
100
AcDbSymbolTableRecord
100
AcDbLinetypeTableRecord
  2
HIDDEN
 70
     0
  3
Hidden __ __ __ __ __ __ __ __ __ __ __ __ __ __
 72
    65
 73
     2
 40
1.905
 49
1.27
 74
     0
 49
-0.635
 74
     0
  0
LTYPE
  5
3C
330
5
100
AcDbSymbolTableRecord
100
AcDbLinetypeTableRecord
  2
PHANTOM
 70
     0
  3
Phantom ______  __  __  ______  __  __  ______
 72
    65
 73
     6
 40
12.7
 49
6.35
 74
     0
 49
-1.27
 74
     0
 49
1.27
 74
     0
 49
-1.27
 74
     0
 49
1.27
 74
     0
 49
-1.27
 74
     0
  0
LTYPE
  5
3D
330
5
100
AcDbSymbolTableRecord
100
AcDbLinetypeTableRecord
  2
CENTER
 70
     0
  3
Center ____ _ ____ _ ____ _ ____ _ ____ _ ____
 72
    65
 73
     4
 40
10.16
 49
6.35
 74
     0
 49
-1.27
 74
     0
 49
1.27
 74
     0
 49
-1.27
 74
     0
  0
LTYPE
  5
3E
330
5
100
AcDbSymbolTableRecord
100
AcDbLinetypeTableRecord
  2
CENTERX2
 70
     0
  3
Center (2x) ________  __  ________  __  _____
 72
    65
 73
     4
 40
20.32
 49
12.7
 74
     0
 49
-2.54
 74
     0
 49
2.54
 74
     0
 49
-2.54
 74
     0
  0
LTYPE
  5
3F
330
5
100
AcDbSymbolTableRecord
100
AcDbLinetypeTableRecord
  2
DOT2
 70
     0
  3
Dot (.5x) ........................................
 72
    65
 73
     2
 40
0.635
 49
0.0
 74
     0
 49
-0.635
 74
     0
  0
ENDTAB
  0
TABLE
  2
LAYER
  5
2
330
0
100
AcDbSymbolTable
 70
     1
  0
LAYER
  5
10
330
2
100
AcDbSymbolTableRecord
100
AcDbLayerTableRecord
  2
0
 70
     0
 62
     7
  6
Continuous
370
    -3
390
F
  0
ENDTAB
  0
TABLE
  2
STYLE
  5
3
330
0
100
AcDbSymbolTable
 70
     1
  0
STYLE
  5
11
330
3
100
AcDbSymbolTableRecord
100
AcDbTextStyleTableRecord
  2
Standard
 70
     0
 40
0.0
 41
1.0
 50
0.0
 71
     0
 42
2.5
  3
txt
  4

  0
ENDTAB
  0
TABLE
  2
VIEW
  5
6
330
0
100
AcDbSymbolTable
 70
     0
  0
ENDTAB
  0
TABLE
  2
UCS
  5
7
330
0
100
AcDbSymbolTable
 70
     0
  0
ENDTAB
  0
TABLE
  2
APPID
  5
9
330
0
100
AcDbSymbolTable
 70
     1
  0
APPID
  5
12
330
9
100
AcDbSymbolTableRecord
100
AcDbRegAppTableRecord
  2
ACAD
 70
     0
  0
ENDTAB
  0
TABLE
  2
DIMSTYLE
  5
A
330
0
100
AcDbSymbolTable
 70
     1
100
AcDbDimStyleTable
  0
DIMSTYLE
105
27
330
A
100
AcDbSymbolTableRecord
100
AcDbDimStyleTableRecord
  2
ISO-25
 70
     0
 41
2.5
 42
0.625
 43
3.75
 44
1.25
 73
     0
 74
     0
 77
     1
 78
     8
140
2.5
141
2.5
143
0.0393700787
147
0.625
171
     3
172
     1
271
     2
272
     2
274
     3
278
    44
283
     0
284
     8
340
11
  0
ENDTAB
  0
TABLE
  2
BLOCK_RECORD
  5
1
330
0
100
AcDbSymbolTable
 70
     1
  0
BLOCK_RECORD
  5
1F
330
1
100
AcDbSymbolTableRecord
100
AcDbBlockTableRecord
  2
*Model_Space
340
22
  0
BLOCK_RECORD
  5
1B
330
1
100
AcDbSymbolTableRecord
100
AcDbBlockTableRecord
  2
*Paper_Space
340
1E
  0
BLOCK_RECORD
  5
23
330
1
100
AcDbSymbolTableRecord
100
AcDbBlockTableRecord
  2
*Paper_Space0
340
26
  0
ENDTAB
  0
ENDSEC
  0
SECTION
  2
BLOCKS
  0
BLOCK
  5
20
330
1F
100
AcDbEntity
  8
0
100
AcDbBlockBegin
  2
*Model_Space
 70
     0
 10
0.0
 20
0.0
 30
0.0
  3
*Model_Space
  1

  0
ENDBLK
  5
21
330
1F
100
AcDbEntity
  8
0
100
AcDbBlockEnd
  0
BLOCK
  5
1C
330
1B
100
AcDbEntity
 67
     1
  8
0
100
AcDbBlockBegin
  2
*Paper_Space
 70
     0
 10
0.0
 20
0.0
 30
0.0
  3
*Paper_Space
  1

  0
ENDBLK
  5
1D
330
1B
100
AcDbEntity
 67
     1
  8
0
100
AcDbBlockEnd
  0
BLOCK
  5
24
330
23
100
AcDbEntity
  8
0
100
AcDbBlockBegin
  2
*Paper_Space0
 70
     0
 10
0.0
 20
0.0
 30
0.0
  3
*Paper_Space0
  1

  0
ENDBLK
  5
25
330
23
100
AcDbEntity
  8
0
100
AcDbBlockEnd
  0
ENDSEC
  0
SECTION
  2
ENTITIES
  0
SPLINE
  5
42
330
1F
100
AcDbEntity
  8
0
  6
Continuous
 62
     7
370
    15
100
AcDbSpline
210
0.0
220
0.0
230
1.0
 70
     8
 71
     3
 72
    20
 73
    16
 74
     0
 42
0.00000001
 43
0.00000001
 40
0.0
 40
0.0
 40
0.0
 40
0.0
 40
0.2500000000000011
 40
0.2500000000000011
 40
0.3749999999999998
 40
0.3749999999999998
 40
0.4999999999999986
 40
0.4999999999999986
 40
0.7499999999999954
 40
0.7499999999999954
 40
0.8749999999999979
 40
0.8749999999999979
 40
0.937499999999999
 40
0.937499999999999
 40
1.0
 40
1.0
 40
1.0
 40
1.0
 10
62.18415695957864
 20
5.224098568239272
 30
0.0
 10
62.3078707881539
 20
5.218223028715175
 30
0.0
 10
62.48960202271697
 20
5.128312341305534
 30
0.0
 10
62.80525317533044
 20
4.931383035454687
 30
0.0
 10
62.91940214203314
 20
4.854060509226611
 30
0.0
 10
63.15541496382576
 20
4.686482946572787
 30
0.0
 10
63.27729667179456
 20
4.596299973578387
 30
0.0
 10
63.65366947711392
 20
4.310863421578184
 30
0.0
 10
63.92051234799096
 20
4.099427584428174
 30
0.0
 10
64.32082460608919
 20
3.777383608873135
 30
0.0
 10
64.45516468867102
 20
3.668473684825179
 30
0.0
 10
64.6582599007555
 20
3.503236003838058
 30
0.0
 10
64.72622311169707
 20
3.44784247796342
 30
0.0
 10
64.8627283333685
 20
3.336484922379076
 30
0.0
 10
64.93220162028462
 20
3.279760295493364
 30
0.0
 10
64.99999999999994
 20
3.224403177926492
 30
0.0
  0
SPLINE
  5
43
330
1F
100
AcDbEntity
  8
0
  6
Continuous
 62
     7
370
    15
100
AcDbSpline
210
0.0
220
0.0
230
1.0
 70
     8
 71
     3
 72
    22
 73
    18
 74
     0
 42
0.00000001
 43
0.00000001
 40
0.0
 40
0.0
 40
0.0
 40
0.0
 40
0.0624999999999989
 40
0.0624999999999989
 40
0.1249999999999978
 40
0.1249999999999978
 40
0.2499999999999958
 40
0.2499999999999958
 40
0.4999999999999922
 40
0.4999999999999922
 40
0.6249999999999941
 40
0.6249999999999941
 40
0.7499999999999961
 40
0.7499999999999961
 40
0.874999999999998
 40
0.874999999999998
 40
1.0
 40
1.0
 40
1.0
 40
1.0
 10
74.74999999999994
 20
3.224403177926492
 30
0.0
 10
74.81784863359283
 20
3.279801327575085
 30
0.0
 10
74.88729186577181
 20
3.336501413823927
 30
0.0
 10
75.02381275525681
 20
3.447871723834752
 30
0.0
 10
75.09178411341081
 20
3.503271864784165
 30
0.0
 10
75.29490470254883
 20
3.668530038969338
 30
0.0
 10
75.42926294364051
 20
3.777454492678737
 30
0.0
 10
75.82963358918092
 20
4.099544084440569
 30
0.0
 10
76.09644185815837
 20
4.310955351896871
 30
0.0
 10
76.47310614641617
 20
4.596601711655885
 30
0.0
 10
76.59513989507317
 20
4.686892835803914
 30
0.0
 10
76.8315629762701
 20
4.854729755634596
 30
0.0
 10
76.9453499655409
 20
4.9317814066923
 30
0.0
 10
77.15572755410923
 20
5.062988067897132
 30
0.0
 10
77.25433064073275
 20
5.118418636338831
 30
0.0
 10
77.4290037541459
 20
5.197599431264361
 30
0.0
 10
77.50408108619555
 20
5.22116530841442
 30
0.0
 10
77.56584304042124
 20
5.224098568239273
 30
0.0
  0
SPLINE
  5
4E
330
1F
100
AcDbEntity
  8
0
  6
Continuous
 62
     7
370
    15
100
AcDbSpline
210
0.0
220
0.0
230
1.0
 70
     8
 71
     3
 72
    22
 73
    18
 74
     0
 42
0.00000001
 43
0.00000001
 40
0.0
 40
0.0
 40
0.0
 40
0.0
 40
0.0624999999999981
 40
0.0624999999999981
 40
0.1249999999999963
 40
0.1249999999999963
 40
0.2499999999999961
 40
0.2499999999999961
 40
0.4999999999999994
 40
0.4999999999999994
 40
0.6249999999999996
 40
0.6249999999999996
 40
0.7499999999999997
 40
0.7499999999999997
 40
0.8749999999999999
 40
0.8749999999999999
 40
1.0
 40
1.0
 40
1.0
 40
1.0
 10
42.74999999999996
 20
3.224403177926492
 30
0.0
 10
42.81784863359285
 20
3.279801327575085
 30
0.0
 10
42.88729186577186
 20
3.336501413823926
 30
0.0
 10
43.02381275525683
 20
3.447871723834753
 30
0.0
 10
43.09178411341082
 20
3.503271864784161
 30
0.0
 10
43.29490470254885
 20
3.668530038969336
 30
0.0
 10
43.42926294364054
 20
3.777454492678741
 30
0.0
 10
43.82963358918091
 20
4.099544084440572
 30
0.0
 10
44.09644185815839
 20
4.310955351896866
 30
0.0
 10
44.47310614641614
 20
4.59660171165588
 30
0.0
 10
44.59513989507317
 20
4.686892835803912
 30
0.0
 10
44.83156297627013
 20
4.854729755634592
 30
0.0
 10
44.94534996554091
 20
4.931781406692299
 30
0.0
 10
45.15572755410923
 20
5.06298806789713
 30
0.0
 10
45.25433064073273
 20
5.118418636338832
 30
0.0
 10
45.42900375414591
 20
5.197599431264362
 30
0.0
 10
45.50408108619553
 20
5.221165308414419
 30
0.0
 10
45.56584304042125
 20
5.224098568239273
 30
0.0
  0
SPLINE
  5
50
330
1F
100
AcDbEntity
  8
0
  6
Continuous
 62
     7
370
    15
100
AcDbSpline
210
0.0
220
0.0
230
1.0
 70
     8
 71
     3
 72
    20
 73
    16
 74
     0
 42
0.00000001
 43
0.00000001
 40
0.0
 40
0.0
 40
0.0
 40
0.0
 40
0.1250000000000008
 40
0.1250000000000008
 40
0.2500000000000016
 40
0.2500000000000016
 40
0.500000000000003
 40
0.500000000000003
 40
0.6250000000000022
 40
0.6250000000000022
 40
0.7500000000000014
 40
0.7500000000000014
 40
0.8750000000000008
 40
0.8750000000000008
 40
1.0
 40
1.0
 40
1.0
 40
1.0
 10
30.18415695957865
 20
5.224098568239273
 30
0.0
 10
30.24601261436223
 20
5.221160858294839
 30
0.0
 10
30.32098106514859
 20
5.197562843939676
 30
0.0
 10
30.49462166228428
 20
5.118936769911732
 30
0.0
 10
30.59373282060813
 20
5.063297441171074
 30
0.0
 10
30.90880860056078
 20
4.866874680941155
 30
0.0
 10
31.15038421328505
 20
4.692499580356307
 30
0.0
 10
31.52593493483297
 20
4.407760076747027
 30
0.0
 10
31.65414085723366
 20
4.308284004840683
 30
0.0
 10
31.9165038172768
 20
4.101774449555792
 30
0.0
 10
32.05084887398364
 20
3.994564318470981
 30
0.0
 10
32.31931680169824
 20
3.778606328845195
 30
0.0
 10
32.4542400277271
 20
3.669224908562783
 30
0.0
 10
32.72578354873851
 20
3.448300031254501
 30
0.0
 10
32.86347264101336
 20
3.335877244033919
 30
0.0
 10
32.99999999999994
 20
3.224403177926491
 30
0.0
  0
SPLINE
  5
51
330
1F
100
AcDbEntity
  8
0
  6
Continuous
 62
     7
370
    15
100
AcDbSpline
210
0.0
220
0.0
230
1.0
 70
     8
 71
     3
 72
    20
 73
    16
 74
     0
 42
0.00000001
 43
0.00000001
 40
0.0
 40
0.0
 40
0.0
 40
0.0
 40
0.1250000000000006
 40
0.1250000000000006
 40
0.2500000000000012
 40
0.2500000000000012
 40
0.5000000000000016
 40
0.5000000000000016
 40
0.6250000000000012
 40
0.6250000000000012
 40
0.750000000000001
 40
0.750000000000001
 40
0.8750000000000004
 40
0.8750000000000004
 40
1.0
 40
1.0
 40
1.0
 40
1.0
 10
13.56584304042126
 20
5.224098568239273
 30
0.0
 10
13.5039873856377
 20
5.221160858294838
 30
0.0
 10
13.42901893485132
 20
5.197562843939675
 30
0.0
 10
13.25537833771564
 20
5.118936769911732
 30
0.0
 10
13.15626717939178
 20
5.063297441171072
 30
0.0
 10
12.84119139943913
 20
4.866874680941153
 30
0.0
 10
12.59961578671486
 20
4.692499580356305
 30
0.0
 10
12.22406506516694
 20
4.407760076747024
 30
0.0
 10
12.09585914276626
 20
4.308284004840679
 30
0.0
 10
11.83349618272311
 20
4.101774449555784
 30
0.0
 10
11.69915112601629
 20
3.994564318470974
 30
0.0
 10
11.4306831983017
 20
3.778606328845185
 30
0.0
 10
11.29575997227283
 20
3.669224908562772
 30
0.0
 10
11.02421645126141
 20
3.44830003125448
 30
0.0
 10
10.88652735899753
 20
3.335877244020485
 30
0.0
 10
10.74999999999996
 20
3.224403177926492
 30
0.0
  0
SPLINE
  5
52
330
1F
100
AcDbEntity
  8
0
  6
Continuous
 62
     7
370
    15
100
AcDbSpline
210
0.0
220
0.0
230
1.0
 70
     8
 71
     3
 72
    20
 73
    16
 74
     0
 42
0.00000001
 43
0.00000001
 40
0.0
 40
0.0
 40
0.0
 40
0.0
 40
0.2500000000000008
 40
0.2500000000000008
 40
0.3750000000000008
 40
0.3750000000000008
 40
0.5000000000000008
 40
0.5000000000000008
 40
0.7500000000000002
 40
0.7500000000000002
 40
0.8750000000000003
 40
0.8750000000000003
 40
0.9375000000000002
 40
0.9375000000000002
 40
1.0
 40
1.0
 40
1.0
 40
1.0
 10
0.3434550345571344
 20
5.224098568239272
 30
0.0
 10
0.4671688631324444
 20
5.218223028715173
 30
0.0
 10
0.6489000976954915
 20
5.128312341305515
 30
0.0
 10
0.9645512503089204
 20
4.931383035454703
 30
0.0
 10
1.078700217011536
 20
4.85406050922666
 30
0.0
 10
1.314713038804254
 20
4.68648294657281
 30
0.0
 10
1.436594746773011
 20
4.596299973578418
 30
0.0
 10
1.812967552092273
 20
4.310863421578284
 30
0.0
 10
2.079810422969314
 20
4.099427584428279
 30
0.0
 10
2.480122681067634
 20
3.777383608873179
 30
0.0
 10
2.61446276364953
 20
3.668473684825196
 30
0.0
 10
2.817557975733999
 20
3.50323600383807
 30
0.0
 10
2.88552118667558
 20
3.447842477963436
 30
0.0
 10
3.022026408347034
 20
3.336484922379118
 30
0.0
 10
3.091499695270131
 20
3.279760295501922
 30
0.0
 10
3.159298074978438
 20
3.224403177926492
 30
0.0
  0
SPLINE
  5
6A
330
1F
100
AcDbEntity
  8
0
  6
Continuous
 62
     7
370
    15
100
AcDbSpline
210
0.0
220
0.0
230
1.0
 70
     8
 71
     3
 72
     8
 73
     4
 74
     0
 42
0.00000001
 43
0.00000001
 40
40.0
 40
40.0
 40
40.0
 40
40.0
 40
41.0
 40
41.0
 40
41.0
 40
41.0
 10
28.21444467586549
 20
16.42653165036675
 30
0.0
 10
28.21553763240819
 20
16.42182275174732
 30
0.0
 10
28.217233342857
 20
16.41725378644695
 30
0.0
 10
28.21865000057147
 20
16.41261999952184
 30
0.0
  0
SPLINE
  5
6B
330
1F
100
AcDbEntity
  8
0
  6
Continuous
 62
     7
370
    15
100
AcDbSpline
210
0.0
220
0.0
230
1.0
 70
     8
 71
     3
 72
     8
 73
     4
 74
     0
 42
0.00000001
 43
0.00000001
 40
39.0
 40
39.0
 40
39.0
 40
39.0
 40
40.0
 40
40.0
 40
40.0
 40
40.0
 10
28.19188698300003
 20
16.52242614588721
 30
0.0
 10
28.2024974981341
 20
16.49152413677018
 30
0.0
 10
28.20702559383609
 20
16.45853888271959
 30
0.0
 10
28.21444467586549
 20
16.42653165036675
 30
0.0
  0
SPLINE
  5
6C
330
1F
100
AcDbEntity
  8
0
  6
Continuous
 62
     7
370
    15
100
AcDbSpline
210
0.0
220
0.0
230
1.0
 70
     8
 71
     3
 72
     8
 73
     4
 74
     0
 42
0.00000001
 43
0.00000001
 40
38.0
 40
38.0
 40
38.0
 40
38.0
 40
39.0
 40
39.0
 40
39.0
 40
39.0
 10
28.01546519349338
 20
16.75103832531919
 30
0.0
 10
28.09486406798524
 20
16.69086502150122
 30
0.0
 10
28.15901364072311
 20
16.61818268471214
 30
0.0
 10
28.19188698300003
 20
16.52242614588721
 30
0.0
  0
SPLINE
  5
6D
330
1F
100
AcDbEntity
  8
0
  6
Continuous
 62
     7
370
    15
100
AcDbSpline
210
0.0
220
0.0
230
1.0
 70
     8
 71
     3
 72
     8
 73
     4
 74
     0
 42
0.00000001
 43
0.00000001
 40
37.0
 40
37.0
 40
37.0
 40
37.0
 40
38.0
 40
38.0
 40
38.0
 40
38.0
 10
27.66114356516399
 20
16.9226098876237
 30
0.0
 10
27.78754422187066
 20
16.88271774411714
 30
0.0
 10
27.9088651886372
 20
16.83182593771812
 30
0.0
 10
28.01546519349338
 20
16.75103832531919
 30
0.0
  0
SPLINE
  5
6E
330
1F
100
AcDbEntity
  8
0
  6
Continuous
 62
     7
370
    15
100
AcDbSpline
210
0.0
220
0.0
230
1.0
 70
     8
 71
     3
 72
    38
 73
    34
 74
     0
 42
0.00000001
 43
0.00000001
 40
26.0
 40
26.0
 40
26.0
 40
26.0
 40
27.0
 40
27.0
 40
27.0
 40
28.0
 40
28.0
 40
28.0
 40
29.0
 40
29.0
 40
29.0
 40
30.0
 40
30.0
 40
30.0
 40
31.0
 40
31.0
 40
31.0
 40
32.0
 40
32.0
 40
32.0
 40
33.0
 40
33.0
 40
33.0
 40
34.0
 40
34.0
 40
34.0
 40
35.0
 40
35.0
 40
35.0
 40
36.0
 40
36.0
 40
36.0
 40
37.0
 40
37.0
 40
37.0
 40
37.0
 10
20.72859323364517
 20
16.07670910788218
 30
0.0
 10
20.76889542479719
 20
16.08915439474431
 30
0.0
 10
20.8091157604805
 20
16.10187047903068
 30
0.0
 10
20.84951143429853
 20
16.11400404073419
 30
0.0
 10
21.3629177708401
 20
16.26821288377425
 30
0.0
 10
21.88021921846467
 20
16.40806696348172
 30
0.0
 10
22.40317613483786
 20
16.52591221217052
 30
0.0
 10
22.72327520091995
 20
16.59804458252908
 30
0.0
 10
23.04436955508771
 20
16.66613190909591
 30
0.0
 10
23.36619921321037
 20
16.73008504033603
 30
0.0
 10
23.60042584645261
 20
16.77662987369842
 30
0.0
 10
23.83622075606162
 20
16.8156983320169
 30
0.0
 10
24.07199613197923
 20
16.85390682829183
 30
0.0
 10
24.27277457431185
 20
16.88644388295593
 30
0.0
 10
24.47427948392943
 20
16.91481495644279
 30
0.0
 10
24.67591461815639
 20
16.94163786861413
 30
0.0
 10
24.84620654926616
 20
16.96429139138602
 30
0.0
 10
25.01693659316879
 20
16.98416456787947
 30
0.0
 10
25.18786104380963
 20
17.00141197441507
 30
0.0
 10
25.34621044806692
 20
17.01739043587692
 30
0.0
 10
25.50497750124991
 20
17.02963105136573
 30
0.0
 10
25.66374455443287
 20
17.04093231285468
 30
0.0
 10
25.78519481563297
 20
17.04957728844322
 30
0.0
 10
25.9068636681416
 20
17.05712222761599
 30
0.0
 10
26.02855670522055
 20
17.05992105568783
 30
0.0
 10
26.22011431503595
 20
17.0643267297199
 30
0.0
 10
26.41180493998804
 20
17.0673663988323
 30
0.0
 10
26.60337929296747
 20
17.06530786895992
 30
0.0
 10
26.77904391938841
 20
17.06342028977205
 30
0.0
 10
26.95437647305552
 20
17.05081481464988
 30
0.0
 10
27.12899558189858
 20
17.02980897655184
 30
0.0
 10
27.30925806720508
 20
17.00812425365687
 30
0.0
 10
27.48763601637923
 20
16.97736944485718
 30
0.0
 10
27.66114356516399
 20
16.9226098876237
 30
0.0
  0
SPLINE
  5
6F
330
1F
100
AcDbEntity
  8
0
  6
Continuous
 62
     7
370
    15
100
AcDbSpline
210
0.0
220
0.0
230
1.0
 70
     8
 71
     3
 72
    17
 73
    13
 74
     0
 42
0.00000001
 43
0.00000001
 40
22.0
 40
22.0
 40
22.0
 40
22.0
 40
23.0
 40
23.0
 40
23.0
 40
24.0
 40
24.0
 40
24.0
 40
25.0
 40
25.0
 40
25.0
 40
26.0
 40
26.0
 40
26.0
 40
26.0
 10
23.92602085613681
 20
16.65562385863772
 30
0.0
 10
23.65289055102933
 20
16.61808292335963
 30
0.0
 10
23.37993046808976
 20
16.5785894619132
 30
0.0
 10
23.10794613954447
 20
16.53359744074526
 30
0.0
 10
22.76165750925994
 20
16.47631390239899
 30
0.0
 10
22.41562932819411
 20
16.41679904676201
 30
0.0
 10
22.0709429256924
 20
16.35066686248289
 30
0.0
 10
21.68833465186226
 20
16.27725884324465
 30
0.0
 10
21.30733930283641
 20
16.19543308200412
 30
0.0
 10
20.9257053881369
 20
16.11696240666974
 30
0.0
 10
20.86007637081932
 20
16.10346793966261
 30
0.0
 10
20.79476500853096
 20
16.08842711355553
 30
0.0
 10
20.72859323364517
 20
16.07670910788218
 30
0.0
  0
SPLINE
  5
70
330
1F
100
AcDbEntity
  8
0
  6
Continuous
 62
     7
370
    15
100
AcDbSpline
210
0.0
220
0.0
230
1.0
 70
     8
 71
     3
 72
    23
 73
    19
 74
     0
 42
0.00000001
 43
0.00000001
 40
16.0
 40
16.0
 40
16.0
 40
16.0
 40
17.0
 40
17.0
 40
17.0
 40
18.0
 40
18.0
 40
18.0
 40
19.0
 40
19.0
 40
19.0
 40
20.0
 40
20.0
 40
20.0
 40
21.0
 40
21.0
 40
21.0
 40
22.0
 40
22.0
 40
22.0
 40
22.0
 10
26.83050403412165
 20
16.79077668460797
 30
0.0
 10
26.68510081638457
 20
16.80981194713067
 30
0.0
 10
26.53912647071793
 20
16.82211558566215
 30
0.0
 10
26.39257169536393
 20
16.82555383509671
 30
0.0
 10
26.25049013534088
 20
16.82888714907597
 30
0.0
 10
26.10833695178264
 20
16.83162488894345
 30
0.0
 10
25.96623585806817
 20
16.83081304896258
 30
0.0
 10
25.85018991815578
 20
16.83015009524265
 30
0.0
 10
25.73406398312621
 20
16.82590718562151
 30
0.0
 10
25.61817338256924
 20
16.81959251292413
 30
0.0
 10
25.4522802527279
 20
16.81055323909215
 30
0.0
 10
25.28642898079673
 20
16.79993560229977
 30
0.0
 10
25.1208186243928
 20
16.78674094257407
 30
0.0
 10
24.95205869279437
 20
16.77329539699942
 30
0.0
 10
24.78334061910607
 20
16.75836965107725
 30
0.0
 10
24.61509693506612
 20
16.73965928151405
 30
0.0
 10
24.38512771637362
 20
16.71408421468695
 30
0.0
 10
24.15523849279828
 20
16.68712897047676
 30
0.0
 10
23.92602085613681
 20
16.65562385863772
 30
0.0
  0
SPLINE
  5
71
330
1F
100
AcDbEntity
  8
0
  6
Continuous
 62
     7
370
    15
100
AcDbSpline
210
0.0
220
0.0
230
1.0
 70
     8
 71
     3
 72
     8
 73
     4
 74
     0
 42
0.00000001
 43
0.00000001
 40
15.0
 40
15.0
 40
15.0
 40
15.0
 40
16.0
 40
16.0
 40
16.0
 40
16.0
 10
27.22090904134827
 20
16.71015337904035
 30
0.0
 10
27.09338287194653
 20
16.74945670674354
 30
0.0
 10
26.96264387539719
 20
16.77347794399645
 30
0.0
 10
26.83050403412165
 20
16.79077668460797
 30
0.0
  0
SPLINE
  5
72
330
1F
100
AcDbEntity
  8
0
  6
Continuous
 62
     7
370
    15
100
AcDbSpline
210
0.0
220
0.0
230
1.0
 70
     8
 71
     3
 72
     8
 73
     4
 74
     0
 42
0.00000001
 43
0.00000001
 40
14.0
 40
14.0
 40
14.0
 40
14.0
 40
15.0
 40
15.0
 40
15.0
 40
15.0
 10
27.52549044996352
 20
16.56245957437452
 30
0.0
 10
27.43471831619715
 20
16.63368243629519
 30
0.0
 10
27.32993215411398
 20
16.6765524939627
 30
0.0
 10
27.22090904134827
 20
16.71015337904035
 30
0.0
  0
SPLINE
  5
73
330
1F
100
AcDbEntity
  8
0
  6
Continuous
 62
     7
370
    15
100
AcDbSpline
210
0.0
220
0.0
230
1.0
 70
     8
 71
     3
 72
     8
 73
     4
 74
     0
 42
0.00000001
 43
0.00000001
 40
13.0
 40
13.0
 40
13.0
 40
13.0
 40
14.0
 40
14.0
 40
14.0
 40
14.0
 10
27.67785789377309
 20
16.256384070911
 30
0.0
 10
27.6817134723854
 20
16.3852963184984
 30
0.0
 10
27.62463416575905
 20
16.48466763668034
 30
0.0
 10
27.52549044996352
 20
16.56245957437452
 30
0.0
  0
SPLINE
  5
74
330
1F
100
AcDbEntity
  8
0
  6
Continuous
 62
     7
370
    15
100
AcDbSpline
210
0.0
220
0.0
230
1.0
 70
     8
 71
     3
 72
     8
 73
     4
 74
     0
 42
0.00000001
 43
0.00000001
 40
12.0
 40
12.0
 40
12.0
 40
12.0
 40
13.0
 40
13.0
 40
13.0
 40
13.0
 10
27.63438240794412
 20
16.07038728445847
 30
0.0
 10
27.65902183420749
 20
16.12999376240988
 30
0.0
 10
27.67592312814856
 20
16.1916781367841
 30
0.0
 10
27.67785789377309
 20
16.256384070911
 30
0.0
  0
SPLINE
  5
75
330
1F
100
AcDbEntity
  8
0
  6
Continuous
 62
     7
370
    15
100
AcDbSpline
210
0.0
220
0.0
230
1.0
 70
     8
 71
     3
 72
     8
 73
     4
 74
     0
 42
0.00000001
 43
0.00000001
 40
11.0
 40
11.0
 40
11.0
 40
11.0
 40
12.0
 40
12.0
 40
12.0
 40
12.0
 10
27.40533313309901
 20
15.71510652862687
 30
0.0
 10
27.49689777663082
 20
15.82361850980092
 30
0.0
 10
27.57966853832886
 20
15.93802954950621
 30
0.0
 10
27.63438240794412
 20
16.07038728445847
 30
0.0
  0
SPLINE
  5
76
330
1F
100
AcDbEntity
  8
0
  6
Continuous
 62
     7
370
    15
100
AcDbSpline
210
0.0
220
0.0
230
1.0
 70
     8
 71
     3
 72
    11
 73
     7
 74
     0
 42
0.00000001
 43
0.00000001
 40
9.0
 40
9.0
 40
9.0
 40
9.0
 40
10.0
 40
10.0
 40
10.0
 40
11.0
 40
11.0
 40
11.0
 40
11.0
 10
25.97034816519605
 20
14.53654776915589
 30
0.0
 10
26.28926451277259
 20
14.75187602105518
 30
0.0
 10
26.60183892187412
 20
14.97580491076971
 30
0.0
 10
26.89708601652686
 20
15.2230390058617
 30
0.0
 10
27.07831123376671
 20
15.37479358010355
 30
0.0
 10
27.25251548421144
 20
15.53400490849393
 30
0.0
 10
27.40533313309901
 20
15.71510652862687
 30
0.0
  0
SPLINE
  5
77
330
1F
100
AcDbEntity
  8
0
  6
Continuous
 62
     7
370
    15
100
AcDbSpline
210
0.0
220
0.0
230
1.0
 70
     8
 71
     3
 72
     8
 73
     4
 74
     0
 42
0.00000001
 43
0.00000001
 40
8.0
 40
8.0
 40
8.0
 40
8.0
 40
9.0
 40
9.0
 40
9.0
 40
9.0
 10
25.94769094352204
 20
14.52097244079065
 30
0.0
 10
25.95746988150787
 20
14.52769947203896
 30
0.0
 10
25.96387321158438
 20
14.53217640807299
 30
0.0
 10
25.97034816519605
 20
14.53654776915589
 30
0.0
  0
SPLINE
  5
78
330
1F
100
AcDbEntity
  8
0
  6
Continuous
 62
     7
370
    15
100
AcDbSpline
210
0.0
220
0.0
230
1.0
 70
     8
 71
     3
 72
    14
 73
    10
 74
     0
 42
0.00000001
 43
0.00000001
 40
5.0
 40
5.0
 40
5.0
 40
5.0
 40
6.0
 40
6.0
 40
6.0
 40
7.0
 40
7.0
 40
7.0
 40
8.0
 40
8.0
 40
8.0
 40
8.0
 10
26.5036356137932
 20
14.52848919127704
 30
0.0
 10
26.4968936997324
 20
14.52368204284074
 30
0.0
 10
26.48762635842611
 20
14.51991576110341
 30
0.0
 10
26.47952173684611
 20
14.51989320434072
 30
0.0
 10
26.30617882917459
 20
14.51940974547853
 30
0.0
 10
26.13283406115152
 20
14.51952811034669
 30
0.0
 10
25.95949022330424
 20
14.51957089843261
 30
0.0
 10
25.95715920279702
 20
14.51957159606444
 30
0.0
 10
25.95482911246556
 20
14.52010319152328
 30
0.0
 10
25.94769094352204
 20
14.52097244079065
 30
0.0
  0
SPLINE
  5
79
330
1F
100
AcDbEntity
  8
0
  6
Continuous
 62
     7
370
    15
100
AcDbSpline
210
0.0
220
0.0
230
1.0
 70
     8
 71
     3
 72
     8
 73
     4
 74
     0
 42
0.00000001
 43
0.00000001
 40
4.0
 40
4.0
 40
4.0
 40
4.0
 40
5.0
 40
5.0
 40
5.0
 40
5.0
 10
26.88413610930353
 20
14.80147136589142
 30
0.0
 10
26.75879027193254
 20
14.7084698333219
 30
0.0
 10
26.63073204198409
 20
14.61911831051709
 30
0.0
 10
26.5036356137932
 20
14.52848919127704
 30
0.0
  0
SPLINE
  5
7A
330
1F
100
AcDbEntity
  8
0
  6
Continuous
 62
     7
370
    15
100
AcDbSpline
210
0.0
220
0.0
230
1.0
 70
     8
 71
     3
 72
     8
 73
     4
 74
     0
 42
0.00000001
 43
0.00000001
 40
3.0
 40
3.0
 40
3.0
 40
3.0
 40
4.0
 40
4.0
 40
4.0
 40
4.0
 10
27.72159475899652
 20
15.51399206029338
 30
0.0
 10
27.46402722488122
 20
15.25115717327413
 30
0.0
 10
27.17908275717902
 20
15.02030893846855
 30
0.0
 10
26.88413610930353
 20
14.80147136589142
 30
0.0
  0
SPLINE
  5
7B
330
1F
100
AcDbEntity
  8
0
  6
Continuous
 62
     7
370
    15
100
AcDbSpline
210
0.0
220
0.0
230
1.0
 70
     8
 71
     3
 72
     8
 73
     4
 74
     0
 42
0.00000001
 43
0.00000001
 40
2.0
 40
2.0
 40
2.0
 40
2.0
 40
3.0
 40
3.0
 40
3.0
 40
3.0
 10
28.04306815979507
 20
15.90190128962755
 30
0.0
 10
27.94995756411522
 20
15.76101733092253
 30
0.0
 10
27.83951128240455
 20
15.63432076204551
 30
0.0
 10
27.72159475899652
 20
15.51399206029338
 30
0.0
  0
SPLINE
  5
7C
330
1F
100
AcDbEntity
  8
0
  6
Continuous
 62
     7
370
    15
100
AcDbSpline
210
0.0
220
0.0
230
1.0
 70
     8
 71
     3
 72
     8
 73
     4
 74
     0
 42
0.00000001
 43
0.00000001
 40
1.0
 40
1.0
 40
1.0
 40
1.0
 40
2.0
 40
2.0
 40
2.0
 40
2.0
 10
28.20452714168827
 20
16.25634407335242
 30
0.0
 10
28.17643583310155
 20
16.12653583394395
 30
0.0
 10
28.11549350645663
 20
16.01148553093316
 30
0.0
 10
28.04306815979507
 20
15.90190128962755
 30
0.0
  0
SPLINE
  5
7D
330
1F
100
AcDbEntity
  8
0
  6
Continuous
 62
     7
370
    15
100
AcDbSpline
210
0.0
220
0.0
230
1.0
 70
     8
 71
     3
 72
     8
 73
     4
 74
     0
 42
0.00000001
 43
0.00000001
 40
0.0
 40
0.0
 40
0.0
 40
0.0
 40
1.0
 40
1.0
 40
1.0
 40
1.0
 10
28.21865000057147
 20
16.33641999954089
 30
0.0
 10
28.21399447078749
 20
16.30971674576338
 30
0.0
 10
28.21025609432357
 20
16.28281495759263
 30
0.0
 10
28.20452714168827
 20
16.25634407335242
 30
0.0
  0
SPLINE
  5
7F
330
1F
100
AcDbEntity
  8
0
  6
Continuous
 62
     7
370
    15
100
AcDbSpline
210
0.0
220
0.0
230
1.0
 70
     8
 71
     3
 72
    17
 73
    13
 74
     0
 42
0.00000001
 43
0.00000001
 40
40.0
 40
40.0
 40
40.0
 40
40.0
 40
41.0
 40
41.0
 40
41.0
 40
42.0
 40
42.0
 40
42.0
 40
43.0
 40
43.0
 40
43.0
 40
44.0
 40
44.0
 40
44.0
 40
44.0
 10
16.08844681299123
 20
14.50341118713293
 30
0.0
 10
16.0245358303412
 20
14.50643007263024
 30
0.0
 10
15.96053778905165
 20
14.50807415832317
 30
0.0
 10
15.8967139522451
 20
14.51234157226254
 30
0.0
 10
15.83026896729162
 20
14.51678409179269
 30
0.0
 10
15.76453343031312
 20
14.52642792174632
 30
0.0
 10
15.70145645198874
 20
14.54946232969956
 30
0.0
 10
15.61238116958989
 20
14.58199080930568
 30
0.0
 10
15.55727215875944
 20
14.64292360164884
 30
0.0
 10
15.54285191432202
 20
14.73815499810941
 30
0.0
 10
15.53910151824294
 20
14.76292278863055
 30
0.0
 10
15.53518839408792
 20
14.78766569694957
 30
0.0
 10
15.53134999942852
 20
14.8124199999219
 30
0.0
  0
SPLINE
  5
80
330
1F
100
AcDbEntity
  8
0
  6
Continuous
 62
     7
370
    15
100
AcDbSpline
210
0.0
220
0.0
230
1.0
 70
     8
 71
     3
 72
     8
 73
     4
 74
     0
 42
0.00000001
 43
0.00000001
 40
39.0
 40
39.0
 40
39.0
 40
39.0
 40
40.0
 40
40.0
 40
40.0
 40
40.0
 10
16.10285000360042
 20
14.5
 30
0.0
 10
16.09805087793024
 20
14.50117853271454
 30
0.0
 10
16.09329076150687
 20
14.50318213134685
 30
0.0
 10
16.08844681299123
 20
14.50341118713293
 30
0.0
  0
SPLINE
  5
82
330
1F
100
AcDbEntity
  8
0
  6
Continuous
 62
     7
370
    15
100
AcDbSpline
210
0.0
220
0.0
230
1.0
 70
     8
 71
     3
 72
    11
 73
     7
 74
     0
 42
0.00000001
 43
0.00000001
 40
36.0
 40
36.0
 40
36.0
 40
36.0
 40
37.0
 40
37.0
 40
37.0
 40
38.0
 40
38.0
 40
38.0
 40
38.0
 10
16.8564362146547
 20
14.52726810302053
 30
0.0
 10
16.76837949653707
 20
14.50929664184338
 30
0.0
 10
16.67900495188168
 20
14.50659517883134
 30
0.0
 10
16.58958668896458
 20
14.50414974670304
 30
0.0
 10
16.56828926801043
 20
14.50356722412019
 30
0.0
 10
16.54703440259827
 20
14.50142502929651
 30
0.0
 10
16.5257600034947
 20
14.5
 30
0.0
  0
SPLINE
  5
83
330
1F
100
AcDbEntity
  8
0
  6
Continuous
 62
     7
370
    15
100
AcDbSpline
210
0.0
220
0.0
230
1.0
 70
     8
 71
     3
 72
    11
 73
     7
 74
     0
 42
0.00000001
 43
0.00000001
 40
34.0
 40
34.0
 40
34.0
 40
34.0
 40
35.0
 40
35.0
 40
35.0
 40
36.0
 40
36.0
 40
36.0
 40
36.0
 10
17.09272388488372
 20
14.97392804858756
 30
0.0
 10
17.0991796536199
 20
14.90101784780014
 30
0.0
 10
17.09465981322797
 20
14.82820043204686
 30
0.0
 10
17.08150515106085
 20
14.7560897173432
 30
0.0
 10
17.0570231570484
 20
14.62188535092166
 30
0.0
 10
16.99089021700146
 20
14.55470852110447
 30
0.0
 10
16.8564362146547
 20
14.52726810302053
 30
0.0
  0
SPLINE
  5
84
330
1F
100
AcDbEntity
  8
0
  6
Continuous
 62
     7
370
    15
100
AcDbSpline
210
0.0
220
0.0
230
1.0
 70
     8
 71
     3
 72
    11
 73
     7
 74
     0
 42
0.00000001
 43
0.00000001
 40
32.0
 40
32.0
 40
32.0
 40
32.0
 40
33.0
 40
33.0
 40
33.0
 40
34.0
 40
34.0
 40
34.0
 40
34.0
 10
16.86210889165524
 20
15.2827046662472
 30
0.0
 10
16.9627285638713
 20
15.26778894878266
 30
0.0
 10
17.04202593293106
 20
15.21466626111283
 30
0.0
 10
17.07175423462041
 20
15.11061784469596
 30
0.0
 10
17.08432637420466
 20
15.06661541428704
 30
0.0
 10
17.08866087707224
 20
15.01981315477726
 30
0.0
 10
17.09272388488372
 20
14.97392804858756
 30
0.0
  0
SPLINE
  5
85
330
1F
100
AcDbEntity
  8
0
  6
Continuous
 62
     7
370
    15
100
AcDbSpline
210
0.0
220
0.0
230
1.0
 70
     8
 71
     3
 72
    14
 73
    10
 74
     0
 42
0.00000001
 43
0.00000001
 40
29.0
 40
29.0
 40
29.0
 40
29.0
 40
30.0
 40
30.0
 40
30.0
 40
31.0
 40
31.0
 40
31.0
 40
32.0
 40
32.0
 40
32.0
 40
32.0
 10
15.98014470272779
 20
15.3378955997661
 30
0.0
 10
16.03229547297842
 20
15.33128298013886
 30
0.0
 10
16.08471314554222
 20
15.32487918497444
 30
0.0
 10
16.13718157082207
 20
15.32304336679863
 30
0.0
 10
16.2671454402659
 20
15.31849631876509
 30
0.0
 10
16.3973438884145
 20
15.31937742777367
 30
0.0
 10
16.52717701002511
 20
15.31275899454777
 30
0.0
 10
16.63908971385455
 20
15.30705422648279
 30
0.0
 10
16.75138530128985
 20
15.29911796671915
 30
0.0
 10
16.86210889165524
 20
15.2827046662472
 30
0.0
  0
SPLINE
  5
86
330
1F
100
AcDbEntity
  8
0
  6
Continuous
 62
     7
370
    15
100
AcDbSpline
210
0.0
220
0.0
230
1.0
 70
     8
 71
     3
 72
    14
 73
    10
 74
     0
 42
0.00000001
 43
0.00000001
 40
26.0
 40
26.0
 40
26.0
 40
26.0
 40
27.0
 40
27.0
 40
27.0
 40
28.0
 40
28.0
 40
28.0
 40
29.0
 40
29.0
 40
29.0
 40
29.0
 10
15.98214600498864
 20
15.50997904943012
 30
0.0
 10
15.9500109025339
 20
15.50557141149176
 30
0.0
 10
15.92846088071921
 20
15.48599307165292
 30
0.0
 10
15.92344502409206
 20
15.45364667395592
 30
0.0
 10
15.9203079190666
 20
15.43341581580667
 30
0.0
 10
15.9200407260735
 20
15.41183213325592
 30
0.0
 10
15.923466505339
 20
15.39170312935469
 30
0.0
 10
15.9286631939516
 20
15.36116894662308
 30
0.0
 10
15.94967571950482
 20
15.34175885232862
 30
0.0
 10
15.98014470272779
 20
15.3378955997661
 30
0.0
  0
SPLINE
  5
87
330
1F
100
AcDbEntity
  8
0
  6
Continuous
 62
     7
370
    15
100
AcDbSpline
210
0.0
220
0.0
230
1.0
 70
     8
 71
     3
 72
    20
 73
    16
 74
     0
 42
0.00000001
 43
0.00000001
 40
21.0
 40
21.0
 40
21.0
 40
21.0
 40
22.0
 40
22.0
 40
22.0
 40
23.0
 40
23.0
 40
23.0
 40
24.0
 40
24.0
 40
24.0
 40
25.0
 40
25.0
 40
25.0
 40
26.0
 40
26.0
 40
26.0
 40
26.0
 10
16.6731179856356
 20
15.39695815742956
 30
0.0
 10
16.67136355784061
 20
15.41409525093114
 30
0.0
 10
16.66984585978192
 20
15.43034449164974
 30
0.0
 10
16.66801039042203
 20
15.44655780432879
 30
0.0
 10
16.66386029490305
 20
15.4832185898421
 30
0.0
 10
16.6418386158314
 20
15.50443264379185
 30
0.0
 10
16.60690563183134
 20
15.50946233678376
 30
0.0
 10
16.5668757496392
 20
15.51522582219492
 30
0.0
 10
16.52632566664153
 20
15.51987774754775
 30
0.0
 10
16.48595284026613
 20
15.52029609410528
 30
0.0
 10
16.35521570406834
 20
15.52165101140229
 30
0.0
 10
16.22444920919747
 20
15.52160740941255
 30
0.0
 10
16.09370998010418
 20
15.52038701878788
 30
0.0
 10
16.05647736902951
 20
15.52003959813367
 30
0.0
 10
16.01913459026076
 20
15.5150525769557
 30
0.0
 10
15.98214600498864
 20
15.50997904943012
 30
0.0
  0
SPLINE
  5
89
330
1F
100
AcDbEntity
  8
0
  6
Continuous
 62
     7
370
    15
100
AcDbSpline
210
0.0
220
0.0
230
1.0
 70
     8
 71
     3
 72
    38
 73
    34
 74
     0
 42
0.00000001
 43
0.00000001
 40
9.0
 40
9.0
 40
9.0
 40
9.0
 40
10.0
 40
10.0
 40
10.0
 40
11.0
 40
11.0
 40
11.0
 40
12.0
 40
12.0
 40
12.0
 40
13.0
 40
13.0
 40
13.0
 40
14.0
 40
14.0
 40
14.0
 40
15.0
 40
15.0
 40
15.0
 40
16.0
 40
16.0
 40
16.0
 40
17.0
 40
17.0
 40
17.0
 40
18.0
 40
18.0
 40
18.0
 40
19.0
 40
19.0
 40
19.0
 40
20.0
 40
20.0
 40
20.0
 40
20.0
 10
15.95000308324375
 20
15.02994788499934
 30
0.0
 10
15.88579929869863
 20
15.03172498582899
 30
0.0
 10
15.82216928727046
 20
15.03582706102327
 30
0.0
 10
15.75922932093182
 20
15.04928461167908
 30
0.0
 10
15.6516177063118
 20
15.07229390488621
 30
0.0
 10
15.58329134637024
 20
15.13609768477749
 30
0.0
 10
15.55976605994957
 20
15.24399737774368
 30
0.0
 10
15.53466899901082
 20
15.35910604928473
 30
0.0
 10
15.53622424201618
 20
15.47456748999072
 30
0.0
 10
15.56430115740443
 20
15.58909782473993
 30
0.0
 10
15.5936606044281
 20
15.7088597006255
 30
0.0
 10
15.67533481968631
 20
15.7732933257925
 30
0.0
 10
15.79303600740102
 20
15.79000137571509
 30
0.0
 10
15.87879103461652
 20
15.80217458616127
 30
0.0
 10
15.96588452664492
 20
15.80795214048112
 30
0.0
 10
16.05254080698825
 20
15.81007735959679
 30
0.0
 10
16.20668517721948
 20
15.81385771024282
 30
0.0
 10
16.36096785296217
 20
15.81450964719333
 30
0.0
 10
16.51515913893436
 20
15.81301334317759
 30
0.0
 10
16.6241209763705
 20
15.81195584958656
 30
0.0
 10
16.73340360817912
 20
15.8086827935571
 30
0.0
 10
16.83971014257637
 20
15.77960596373038
 30
0.0
 10
16.85374010015344
 20
15.77576852354579
 30
0.0
 10
16.86754204839216
 20
15.77104730009727
 30
0.0
 10
16.88132806737065
 20
15.76637642241291
 30
0.0
 10
16.97381381746961
 20
15.73504054442999
 30
0.0
 10
17.02485709718097
 20
15.66822892487884
 30
0.0
 10
17.0377058477881
 20
15.57389270633551
 30
0.0
 10
17.04537363556695
 20
15.51759625890087
 30
0.0
 10
17.04462147217602
 20
15.46015162573653
 30
0.0
 10
17.0475426892163
 20
15.40321731026003
 30
0.0
 10
17.04763024201169
 20
15.40150974007003
 30
0.0
 10
17.04646601074977
 20
15.39973787147916
 30
0.0
 10
17.04553955567188
 20
15.39695815742956
 30
0.0
  0
SPLINE
  5
8A
330
1F
100
AcDbEntity
  8
0
  6
Continuous
 62
     7
370
    15
100
AcDbSpline
210
0.0
220
0.0
230
1.0
 70
     8
 71
     3
 72
     8
 73
     4
 74
     0
 42
0.00000001
 43
0.00000001
 40
8.0
 40
8.0
 40
8.0
 40
8.0
 40
9.0
 40
9.0
 40
9.0
 40
9.0
 10
16.34170350558539
 20
15.01557294847949
 30
0.0
 10
16.21115077673619
 20
15.02075774828288
 30
0.0
 10
16.08060275690189
 20
15.02633229173852
 30
0.0
 10
15.95000308324375
 20
15.02994788499934
 30
0.0
  0
SPLINE
  5
8B
330
1F
100
AcDbEntity
  8
0
  6
Continuous
 62
     7
370
    15
100
AcDbSpline
210
0.0
220
0.0
230
1.0
 70
     8
 71
     3
 72
    17
 73
    13
 74
     0
 42
0.00000001
 43
0.00000001
 40
4.0
 40
4.0
 40
4.0
 40
4.0
 40
5.0
 40
5.0
 40
5.0
 40
6.0
 40
6.0
 40
6.0
 40
7.0
 40
7.0
 40
7.0
 40
8.0
 40
8.0
 40
8.0
 40
8.0
 10
16.50867011641401
 20
14.79396694023413
 30
0.0
 10
16.55043105573463
 20
14.79391043205541
 30
0.0
 10
16.59255987957663
 20
14.79467503654741
 30
0.0
 10
16.63387852031338
 20
14.80001936149725
 30
0.0
 10
16.7027232715779
 20
14.80892393424894
 30
0.0
 10
16.72093715981798
 20
14.83911720755681
 30
0.0
 10
16.71838266457936
 20
14.91358335988194
 30
0.0
 10
16.71619733285382
 20
14.97728668078887
 30
0.0
 10
16.68734490793428
 20
15.00008249865426
 30
0.0
 10
16.61732348430678
 20
15.00345833910753
 30
0.0
 10
16.52546874220326
 20
15.007886673457
 30
0.0
 10
16.43359254792082
 20
15.0119241014345
 30
0.0
 10
16.34170350558539
 20
15.01557294847949
 30
0.0
  0
SPLINE
  5
8C
330
1F
100
AcDbEntity
  8
0
  6
Continuous
 62
     7
370
    15
100
AcDbSpline
210
0.0
220
0.0
230
1.0
 70
     8
 71
     3
 72
    14
 73
    10
 74
     0
 42
0.00000001
 43
0.00000001
 40
1.0
 40
1.0
 40
1.0
 40
1.0
 40
2.0
 40
2.0
 40
2.0
 40
3.0
 40
3.0
 40
3.0
 40
4.0
 40
4.0
 40
4.0
 40
4.0
 10
15.90633819037136
 20
14.93814999989046
 30
0.0
 10
15.90806183516158
 20
14.92222864613468
 30
0.0
 10
15.90926199446303
 20
14.90845041737836
 30
0.0
 10
15.91108493551788
 20
14.89475450917866
 30
0.0
 10
15.92078355863863
 20
14.82188988700447
 30
0.0
 10
15.94828952504715
 20
14.79983937248364
 30
0.0
 10
16.01746893611688
 20
14.79776647575562
 30
0.0
 10
16.18109650657159
 20
14.79286328666993
 30
0.0
 10
16.34492284396349
 20
14.79418785698212
 30
0.0
 10
16.50867011641401
 20
14.79396694023413
 30
0.0
  0
CIRCLE
  5
8E
330
1F
100
AcDbEntity
  8
0
  6
Continuous
 62
     7
370
    15
100
AcDbCircle
 10
5.875
 20
11.947025493
 30
0.0
 40
4.499999999999999
  0
CIRCLE
  5
8F
330
1F
100
AcDbEntity
  8
0
  6
Continuous
 62
     7
370
    15
100
AcDbCircle
 10
37.875
 20
11.947025493
 30
0.0
 40
4.49999999999999
  0
CIRCLE
  5
98
330
1F
100
AcDbEntity
  8
0
  6
Continuous
 62
     7
370
    15
100
AcDbCircle
 10
69.875
 20
11.947025493
 30
0.0
 40
4.500000000000045
  0
SPLINE
  5
9A
330
1F
100
AcDbEntity
  8
0
  6
Continuous
 62
     7
370
    15
100
AcDbSpline
210
0.0
220
0.0
230
1.0
 70
     8
 71
     3
 72
    20
 73
    16
 74
     0
 42
0.00000001
 43
0.00000001
 40
6.0
 40
6.0
 40
6.0
 40
6.0
 40
7.0
 40
7.0
 40
7.0
 40
8.0
 40
8.0
 40
8.0
 40
9.0
 40
9.0
 40
9.0
 40
10.0
 40
10.0
 40
10.0
 40
11.0
 40
11.0
 40
11.0
 40
11.0
 10
18.13311514774617
 20
14.52124893554157
 30
0.0
 10
18.13311514774617
 20
14.53120576964551
 30
0.0
 10
18.13311491520223
 20
14.53943643004385
 30
0.0
 10
18.13311491520223
 20
14.54766685789822
 30
0.0
 10
18.13311514774617
 20
14.84732624136825
 30
0.0
 10
18.13311258976279
 20
15.14698574111022
 30
0.0
 10
18.13312119388876
 20
15.44664524085221
 30
0.0
 10
18.1331218915206
 20
15.47123618170298
 30
0.0
 10
18.13315840091999
 20
15.4712879227308
 30
0.0
 10
18.1582398932233
 20
15.47129036444224
 30
0.0
 10
18.33092493407369
 20
15.47130675879037
 30
0.0
 10
18.50361020746801
 20
15.4712840857557
 30
0.0
 10
18.6762952483184
 20
15.47135129095589
 30
0.0
 10
18.68419523122659
 20
15.47135431402718
 30
0.0
 10
18.69209474904687
 20
15.47209798956409
 30
0.0
 10
18.69913013356659
 20
15.47245320044049
 30
0.0
  0
SPLINE
  5
9E
330
1F
100
AcDbEntity
  8
0
  6
Continuous
 62
     7
370
    15
100
AcDbSpline
210
0.0
220
0.0
230
1.0
 70
     8
 71
     3
 72
    20
 73
    16
 74
     0
 42
0.00000001
 43
0.00000001
 40
0.0
 40
0.0
 40
0.0
 40
0.0
 40
1.0
 40
1.0
 40
1.0
 40
2.0
 40
2.0
 40
2.0
 40
3.0
 40
3.0
 40
3.0
 40
4.0
 40
4.0
 40
4.0
 40
5.0
 40
5.0
 40
5.0
 40
5.0
 10
17.15753213834653
 20
15.47129966620004
 30
0.0
 10
17.16766140378588
 20
15.47129966620004
 30
0.0
 10
17.17584206723599
 20
15.47129966620004
 30
0.0
 10
17.18402284695807
 20
15.47129966620004
 30
0.0
 10
17.35416850792628
 20
15.47129954992806
 30
0.0
 10
17.52431416889447
 20
15.47130106146371
 30
0.0
 10
17.69445982986268
 20
15.4712981546644
 30
0.0
 10
17.72564490309707
 20
15.47129757330454
 30
0.0
 10
17.72565699538223
 20
15.47128908545054
 30
0.0
 10
17.72565722792617
 20
15.44094105414708
 30
0.0
 10
17.7256604835414
 20
15.14318736830844
 30
0.0
 10
17.72565955336563
 20
14.84543379874176
 30
0.0
 10
17.72565978590957
 20
14.54768011290311
 30
0.0
 10
17.72565978590957
 20
14.53900087523437
 30
0.0
 10
17.72565955336563
 20
14.53032187010959
 30
0.0
 10
17.72565955336563
 20
14.52124893554157
 30
0.0
  0
SPLINE
  5
A1
330
1F
100
AcDbEntity
  8
0
  6
Continuous
 62
     7
370
    15
100
AcDbSpline
210
0.0
220
0.0
230
1.0
 70
     8
 71
     3
 72
    14
 73
    10
 74
     0
 42
0.00000001
 43
0.00000001
 40
3.0
 40
3.0
 40
3.0
 40
3.0
 40
4.0
 40
4.0
 40
4.0
 40
5.0
 40
5.0
 40
5.0
 40
6.0
 40
6.0
 40
6.0
 40
6.0
 10
19.18140302162961
 20
14.84372367056835
 30
0.0
 10
19.18960833473792
 20
14.84372367056835
 30
0.0
 10
19.19523613075702
 20
14.84372367056835
 30
0.0
 10
19.20086369423217
 20
14.84372367056835
 30
0.0
 10
19.3964059445495
 20
14.84372227530469
 30
0.0
 10
19.59194865995472
 20
14.84390761282905
 30
0.0
 10
19.78748974755232
 20
14.84352089224809
 30
0.0
 10
19.81726327903901
 20
14.84346205862994
 30
0.0
 10
19.84709959739092
 20
14.84156659293219
 30
0.0
 10
19.87678755270577
 20
14.83909232535466
 30
0.0
  0
SPLINE
  5
A2
330
1F
100
AcDbEntity
  8
0
  6
Continuous
 62
     7
370
    15
100
AcDbSpline
210
0.0
220
0.0
230
1.0
 70
     8
 71
     3
 72
     8
 73
     4
 74
     0
 42
0.00000001
 43
0.00000001
 40
6.0
 40
6.0
 40
6.0
 40
6.0
 40
7.0
 40
7.0
 40
7.0
 40
7.0
 10
19.87678755270577
 20
14.83909232535466
 30
0.0
 10
19.9319525575748
 20
14.83449423392517
 30
0.0
 10
19.96283067280145
 20
14.80919647575279
 30
0.0
 10
19.97411696064042
 20
14.75434866082509
 30
0.0
  0
SPLINE
  5
A3
330
1F
100
AcDbEntity
  8
0
  6
Continuous
 62
     7
370
    15
100
AcDbSpline
210
0.0
220
0.0
230
1.0
 70
     8
 71
     3
 72
     8
 73
     4
 74
     0
 42
0.00000001
 43
0.00000001
 40
7.0
 40
7.0
 40
7.0
 40
7.0
 40
8.0
 40
8.0
 40
8.0
 40
8.0
 10
19.97411696064042
 20
14.75434866082509
 30
0.0
 10
19.9812235036074
 20
14.71981402460324
 30
0.0
 10
19.98373497821615
 20
14.68406178828405
 30
0.0
 10
19.98527023334272
 20
14.64872348018743
 30
0.0
  0
SPLINE
  5
A4
330
1F
100
AcDbEntity
  8
0
  6
Continuous
 62
     7
370
    15
100
AcDbSpline
210
0.0
220
0.0
230
1.0
 70
     8
 71
     3
 72
     8
 73
     4
 74
     0
 42
0.00000001
 43
0.00000001
 40
8.0
 40
8.0
 40
8.0
 40
8.0
 40
9.0
 40
9.0
 40
9.0
 40
9.0
 10
19.98527023334272
 20
14.64872348018743
 30
0.0
 10
19.98710686542234
 20
14.60644234006127
 30
0.0
 10
19.98570416034455
 20
14.56402074339219
 30
0.0
 10
19.98570416034455
 20
14.52079338195279
 30
0.0
  0
SPLINE
  5
A6
330
1F
100
AcDbEntity
  8
0
  6
Continuous
 62
     7
370
    15
100
AcDbSpline
210
0.0
220
0.0
230
1.0
 70
     8
 71
     3
 72
    17
 73
    13
 74
     0
 42
0.00000001
 43
0.00000001
 40
10.0
 40
10.0
 40
10.0
 40
10.0
 40
11.0
 40
11.0
 40
11.0
 40
12.0
 40
12.0
 40
12.0
 40
13.0
 40
13.0
 40
13.0
 40
14.0
 40
14.0
 40
14.0
 40
14.0
 10
20.36765712533697
 20
14.52079338195279
 30
0.0
 10
20.36831661996571
 20
14.52380017516495
 30
0.0
 10
20.36908773568816
 20
14.52560239074067
 30
0.0
 10
20.36904959848114
 20
14.52738693297654
 30
0.0
 10
20.36686042978051
 20
14.6301164764079
 30
0.0
 10
20.36699484018087
 20
14.73296950067417
 30
0.0
 10
20.36163423715488
 20
14.83553510062411
 30
0.0
 10
20.3569628943826
 20
14.92491313343869
 30
0.0
 10
20.29956128184813
 20
14.98690562854038
 30
0.0
 10
20.21190942273917
 20
15.0060609709428
 30
0.0
 10
20.19605411146385
 20
15.00952587572709
 30
0.0
 10
20.1798904469171
 20
15.01157970385158
 30
0.0
 10
20.16386909926485
 20
15.01428512011067
 30
0.0
  0
SPLINE
  5
A7
330
1F
100
AcDbEntity
  8
0
  6
Continuous
 62
     7
370
    15
100
AcDbSpline
210
0.0
220
0.0
230
1.0
 70
     8
 71
     3
 72
    11
 73
     7
 74
     0
 42
0.00000001
 43
0.00000001
 40
14.0
 40
14.0
 40
14.0
 40
14.0
 40
15.0
 40
15.0
 40
15.0
 40
16.0
 40
16.0
 40
16.0
 40
16.0
 10
20.16386909926485
 20
15.01428512011067
 30
0.0
 10
20.17182117201678
 20
15.01883763292693
 30
0.0
 10
20.17969138929997
 20
15.02077030565593
 30
0.0
 10
20.18759044203236
 20
15.02257461412716
 30
0.0
 10
20.30324849864408
 20
15.04899323411567
 30
0.0
 10
20.35808329111083
 20
15.10614928024398
 30
0.0
 10
20.37373954476903
 20
15.22349339673074
 30
0.0
  0
SPLINE
  5
A8
330
1F
100
AcDbEntity
  8
0
  6
Continuous
 62
     7
370
    15
100
AcDbSpline
210
0.0
220
0.0
230
1.0
 70
     8
 71
     3
 72
     8
 73
     4
 74
     0
 42
0.00000001
 43
0.00000001
 40
16.0
 40
16.0
 40
16.0
 40
16.0
 40
17.0
 40
17.0
 40
17.0
 40
17.0
 10
20.37373954476903
 20
15.22349339673074
 30
0.0
 10
20.38830935311499
 20
15.33269242899104
 30
0.0
 10
20.38636249520533
 20
15.44240677863402
 30
0.0
 10
20.37247590097053
 20
15.55166755131178
 30
0.0
  0
SPLINE
  5
A9
330
1F
100
AcDbEntity
  8
0
  6
Continuous
 62
     7
370
    15
100
AcDbSpline
210
0.0
220
0.0
230
1.0
 70
     8
 71
     3
 72
    17
 73
    13
 74
     0
 42
0.00000001
 43
0.00000001
 40
17.0
 40
17.0
 40
17.0
 40
17.0
 40
18.0
 40
18.0
 40
18.0
 40
19.0
 40
19.0
 40
19.0
 40
20.0
 40
20.0
 40
20.0
 40
21.0
 40
21.0
 40
21.0
 40
21.0
 10
20.37247590097053
 20
15.55166755131178
 30
0.0
 10
20.35634618783979
 20
15.67857352601151
 30
0.0
 10
20.28680113048413
 20
15.75996158141108
 30
0.0
 10
20.14828074843868
 20
15.78432997770626
 30
0.0
 10
20.0863612721358
 20
15.79522280118986
 30
0.0
 10
20.02189543963239
 20
15.79402438596799
 30
0.0
 10
19.9585746535154
 20
15.79417705106805
 30
0.0
 10
19.57765232328838
 20
15.7950960647397
 30
0.0
 10
19.19672696999005
 20
15.794814454022
 30
0.0
 10
18.81580277941144
 20
15.79493444669775
 30
0.0
 10
18.80899621813385
 20
15.79493653959326
 30
0.0
 10
18.80218942431232
 20
15.79493467924169
 30
0.0
 10
18.79429223193147
 20
15.79493467924169
 30
0.0
  0
SPLINE
  5
AF
330
1F
100
AcDbEntity
  8
0
  6
Continuous
 62
     7
370
    15
100
AcDbSpline
210
0.0
220
0.0
230
1.0
 70
     8
 71
     3
 72
     8
 73
     4
 74
     0
 42
0.00000001
 43
0.00000001
 40
4.0
 40
4.0
 40
4.0
 40
4.0
 40
5.0
 40
5.0
 40
5.0
 40
5.0
 10
22.60100824538409
 20
15.02418498094804
 30
0.0
 10
22.60965515944443
 20
15.04787609300266
 30
0.0
 10
22.61622499098577
 20
15.07261411789884
 30
0.0
 10
22.62091865797678
 20
15.09740748825396
 30
0.0
  0
SPLINE
  5
B0
330
1F
100
AcDbEntity
  8
0
  6
Continuous
 62
     7
370
    15
100
AcDbSpline
210
0.0
220
0.0
230
1.0
 70
     8
 71
     3
 72
     8
 73
     4
 74
     0
 42
0.00000001
 43
0.00000001
 40
5.0
 40
5.0
 40
5.0
 40
5.0
 40
6.0
 40
6.0
 40
6.0
 40
6.0
 10
22.62091865797678
 20
15.09740748825396
 30
0.0
 10
22.63883105299183
 20
15.19201927137239
 30
0.0
 10
22.64254570997332
 20
15.28773668467855
 30
0.0
 10
22.63641631666431
 20
15.38353455818975
 30
0.0
  0
SPLINE
  5
B1
330
1F
100
AcDbEntity
  8
0
  6
Continuous
 62
     7
370
    15
100
AcDbSpline
210
0.0
220
0.0
230
1.0
 70
     8
 71
     3
 72
     8
 73
     4
 74
     0
 42
0.00000001
 43
0.00000001
 40
6.0
 40
6.0
 40
6.0
 40
6.0
 40
7.0
 40
7.0
 40
7.0
 40
7.0
 10
22.63641631666431
 20
15.38353455818975
 30
0.0
 10
22.63282397779801
 20
15.4396845029389
 30
0.0
 10
22.62656622023121
 20
15.49597792730228
 30
0.0
 10
22.61665845289971
 20
15.55133885044516
 30
0.0
  0
SPLINE
  5
B2
330
1F
100
AcDbEntity
  8
0
  6
Continuous
 62
     7
370
    15
100
AcDbSpline
210
0.0
220
0.0
230
1.0
 70
     8
 71
     3
 72
    20
 73
    16
 74
     0
 42
0.00000001
 43
0.00000001
 40
7.0
 40
7.0
 40
7.0
 40
7.0
 40
8.0
 40
8.0
 40
8.0
 40
9.0
 40
9.0
 40
9.0
 40
10.0
 40
10.0
 40
10.0
 40
11.0
 40
11.0
 40
11.0
 40
12.0
 40
12.0
 40
12.0
 40
12.0
 10
22.61665845289971
 20
15.55133885044516
 30
0.0
 10
22.60030038161473
 20
15.64273908540767
 30
0.0
 10
22.55222796707598
 20
15.71162650848615
 30
0.0
 10
22.46319433184434
 20
15.74708852996165
 30
0.0
 10
22.44733343951432
 20
15.75340581877844
 30
0.0
 10
22.43121860919607
 20
15.75921232481947
 30
0.0
 10
22.41491495319428
 20
15.76426934172494
 30
0.0
 10
22.32330473104921
 20
15.79268446775544
 30
0.0
 10
22.2284193599792
 20
15.79373138059698
 30
0.0
 10
22.13407163051059
 20
15.79410403226924
 30
0.0
 10
21.79880046726434
 20
15.7954282537655
 30
0.0
 10
21.46352139752393
 20
15.794814454022
 30
0.0
 10
21.12824558339876
 20
15.79493433042577
 30
0.0
 10
21.12145809072469
 20
15.79493677213719
 30
0.0
 10
21.1146705980506
 20
15.79493467924169
 30
0.0
 10
21.10708315420484
 20
15.79493467924169
 30
0.0
  0
SPLINE
  5
B6
330
1F
100
AcDbEntity
  8
0
  6
Continuous
 62
     7
370
    15
100
AcDbSpline
210
0.0
220
0.0
230
1.0
 70
     8
 71
     3
 72
    17
 73
    13
 74
     0
 42
0.00000001
 43
0.00000001
 40
0.0
 40
0.0
 40
0.0
 40
0.0
 40
1.0
 40
1.0
 40
1.0
 40
2.0
 40
2.0
 40
2.0
 40
3.0
 40
3.0
 40
3.0
 40
4.0
 40
4.0
 40
4.0
 40
4.0
 10
21.49381908306324
 20
14.83229506583489
 30
0.0
 10
21.50376917339277
 20
14.83229506583489
 30
0.0
 10
21.51181147319546
 20
14.83226506766594
 30
0.0
 10
21.51985377299813
 20
14.8322992516259
 30
0.0
 10
21.73315889257371
 20
14.83320547538056
 30
0.0
 10
21.94646587250084
 20
14.83388241080521
 30
0.0
 10
22.15976913172487
 20
14.83514372916426
 30
0.0
 10
22.24873904991552
 20
14.83566974356842
 30
0.0
 10
22.33720434774495
 20
14.84108918021259
 30
0.0
 10
22.42336653034061
 20
14.86642623831172
 30
0.0
 10
22.50754185746802
 20
14.89117914602038
 30
0.0
 10
22.5702743074035
 20
14.93997198170151
 30
0.0
 10
22.60100824538409
 20
15.02418498094804
 30
0.0
  0
SPLINE
  5
BE
330
1F
100
AcDbEntity
  8
0
  6
Continuous
 62
     7
370
    15
100
AcDbSpline
210
0.0
220
0.0
230
1.0
 70
     8
 71
     3
 72
    11
 73
     7
 74
     0
 42
0.00000001
 43
0.00000001
 40
16.0
 40
16.0
 40
16.0
 40
16.0
 40
17.0
 40
17.0
 40
17.0
 40
18.0
 40
18.0
 40
18.0
 40
18.0
 10
25.65756167601645
 20
14.5321271087566
 30
0.0
 10
25.58394105347625
 20
14.51756846252001
 30
0.0
 10
25.5080638244913
 20
14.5136126574673
 30
0.0
 10
25.43298096562337
 20
14.50751791320613
 30
0.0
 10
25.37618815313754
 20
14.50290772949147
 30
0.0
 10
25.31906605842527
 20
14.50235729797304
 30
0.0
 10
25.26209000131061
 20
14.5
 30
0.0
  0
SPLINE
  5
BF
330
1F
100
AcDbEntity
  8
0
  6
Continuous
 62
     7
370
    15
100
AcDbSpline
210
0.0
220
0.0
230
1.0
 70
     8
 71
     3
 72
     8
 73
     4
 74
     0
 42
0.00000001
 43
0.00000001
 40
15.0
 40
15.0
 40
15.0
 40
15.0
 40
16.0
 40
16.0
 40
16.0
 40
16.0
 10
25.86232406121917
 20
14.69621965082984
 30
0.0
 10
25.82662205439215
 20
14.60318602719587
 30
0.0
 10
25.75193731075847
 20
14.55079038817089
 30
0.0
 10
25.65756167601645
 20
14.5321271087566
 30
0.0
  0
SPLINE
  5
C0
330
1F
100
AcDbEntity
  8
0
  6
Continuous
 62
     7
370
    15
100
AcDbSpline
210
0.0
220
0.0
230
1.0
 70
     8
 71
     3
 72
     8
 73
     4
 74
     0
 42
0.00000001
 43
0.00000001
 40
14.0
 40
14.0
 40
14.0
 40
14.0
 40
15.0
 40
15.0
 40
15.0
 40
15.0
 10
25.8935314586723
 20
14.83078864615753
 30
0.0
 10
25.88912335564603
 20
14.7852549138691
 30
0.0
 10
25.87869794549241
 20
14.7388847210096
 30
0.0
 10
25.86232406121917
 20
14.69621965082984
 30
0.0
  0
SPLINE
  5
C1
330
1F
100
AcDbEntity
  8
0
  6
Continuous
 62
     7
370
    15
100
AcDbSpline
210
0.0
220
0.0
230
1.0
 70
     8
 71
     3
 72
     8
 73
     4
 74
     0
 42
0.00000001
 43
0.00000001
 40
13.0
 40
13.0
 40
13.0
 40
13.0
 40
14.0
 40
14.0
 40
14.0
 40
14.0
 10
25.9095304821058
 20
15.10222417099202
 30
0.0
 10
25.90743014519226
 20
15.01164481615627
 30
0.0
 10
25.90226115837714
 20
14.92095267750707
 30
0.0
 10
25.8935314586723
 20
14.83078864615753
 30
0.0
  0
SPLINE
  5
C2
330
1F
100
AcDbEntity
  8
0
  6
Continuous
 62
     7
370
    15
100
AcDbSpline
210
0.0
220
0.0
230
1.0
 70
     8
 71
     3
 72
     8
 73
     4
 74
     0
 42
0.00000001
 43
0.00000001
 40
12.0
 40
12.0
 40
12.0
 40
12.0
 40
13.0
 40
13.0
 40
13.0
 40
13.0
 10
25.89059024285271
 20
15.51052134191046
 30
0.0
 10
25.91038717400012
 20
15.37507681862889
 30
0.0
 10
25.91269214958547
 20
15.23863258892665
 30
0.0
 10
25.9095304821058
 20
15.10222417099202
 30
0.0
  0
SPLINE
  5
C3
330
1F
100
AcDbEntity
  8
0
  6
Continuous
 62
     7
370
    15
100
AcDbSpline
210
0.0
220
0.0
230
1.0
 70
     8
 71
     3
 72
     8
 73
     4
 74
     0
 42
0.00000001
 43
0.00000001
 40
11.0
 40
11.0
 40
11.0
 40
11.0
 40
12.0
 40
12.0
 40
12.0
 40
12.0
 10
25.8349982873002
 20
15.67068226350128
 30
0.0
 10
25.86894970330734
 20
15.62264973024913
 30
0.0
 10
25.88228284295245
 20
15.56735124515552
 30
0.0
 10
25.89059024285271
 20
15.51052134191046
 30
0.0
  0
SPLINE
  5
C4
330
1F
100
AcDbEntity
  8
0
  6
Continuous
 62
     7
370
    15
100
AcDbSpline
210
0.0
220
0.0
230
1.0
 70
     8
 71
     3
 72
    20
 73
    16
 74
     0
 42
0.00000001
 43
0.00000001
 40
6.0
 40
6.0
 40
6.0
 40
6.0
 40
7.0
 40
7.0
 40
7.0
 40
8.0
 40
8.0
 40
8.0
 40
9.0
 40
9.0
 40
9.0
 40
10.0
 40
10.0
 40
10.0
 40
11.0
 40
11.0
 40
11.0
 40
11.0
 10
24.24624224033412
 20
15.69214537201642
 30
0.0
 10
24.29849765536011
 20
15.75118886107636
 30
0.0
 10
24.3668451113977
 20
15.78184117613218
 30
0.0
 10
24.44268978423032
 20
15.79052983183068
 30
0.0
 10
24.53705890774189
 20
15.80134056730161
 30
0.0
 10
24.63220844873371
 20
15.8084109496851
 30
0.0
 10
24.72716079245999
 20
15.81039373563431
 30
0.0
 10
24.9035211903651
 20
15.81407630155136
 30
0.0
 10
25.07999693006706
 20
15.81470789090667
 30
0.0
 10
25.25639453500343
 20
15.81312868497444
 30
0.0
 10
25.37871823126194
 20
15.81203363553625
 30
0.0
 10
25.50140004519609
 20
15.81037606229447
 30
0.0
 10
25.62267264282203
 20
15.79121188322212
 30
0.0
 10
25.70801348020305
 20
15.77772596220498
 30
0.0
 10
25.78310098994989
 20
15.74409859618556
 30
0.0
 10
25.8349982873002
 20
15.67068226350128
 30
0.0
  0
SPLINE
  5
C5
330
1F
100
AcDbEntity
  8
0
  6
Continuous
 62
     7
370
    15
100
AcDbSpline
210
0.0
220
0.0
230
1.0
 70
     8
 71
     3
 72
    14
 73
    10
 74
     0
 42
0.00000001
 43
0.00000001
 40
3.0
 40
3.0
 40
3.0
 40
3.0
 40
4.0
 40
4.0
 40
4.0
 40
5.0
 40
5.0
 40
5.0
 40
6.0
 40
6.0
 40
6.0
 40
6.0
 10
24.17619349279303
 20
14.78821287285275
 30
0.0
 10
24.15411670080636
 20
14.93050162953103
 30
0.0
 10
24.15105735266258
 20
15.0738779942413
 30
0.0
 10
24.15442737951723
 20
15.21723749951551
 30
0.0
 10
24.15668956701666
 20
15.31346534678148
 30
0.0
 10
24.16410678869449
 20
15.40972551765586
 30
0.0
 10
24.17325227697344
 20
15.50558606176032
 30
0.0
 10
24.17975792638589
 20
15.57377573673105
 30
0.0
 10
24.19916139317791
 20
15.63894803774017
 30
0.0
 10
24.24624224033412
 20
15.69214537201642
 30
0.0
  0
SPLINE
  5
C6
330
1F
100
AcDbEntity
  8
0
  6
Continuous
 62
     7
370
    15
100
AcDbSpline
210
0.0
220
0.0
230
1.0
 70
     8
 71
     3
 72
     8
 73
     4
 74
     0
 42
0.00000001
 43
0.00000001
 40
2.0
 40
2.0
 40
2.0
 40
2.0
 40
3.0
 40
3.0
 40
3.0
 40
3.0
 10
24.42783580718325
 20
14.52714997069633
 30
0.0
 10
24.27978344882181
 20
14.55191776121749
 30
0.0
 10
24.19918185704509
 20
14.64005424190833
 30
0.0
 10
24.17619349279303
 20
14.78821287285275
 30
0.0
  0
SPLINE
  5
C7
330
1F
100
AcDbEntity
  8
0
  6
Continuous
 62
     7
370
    15
100
AcDbSpline
210
0.0
220
0.0
230
1.0
 70
     8
 71
     3
 72
    11
 73
     7
 74
     0
 42
0.00000001
 43
0.00000001
 40
0.0
 40
0.0
 40
0.0
 40
0.0
 40
1.0
 40
1.0
 40
1.0
 40
2.0
 40
2.0
 40
2.0
 40
2.0
 10
24.80108000142588
 20
14.5
 30
0.0
 10
24.76056991598679
 20
14.50150293151818
 30
0.0
 10
24.71996588279379
 20
14.50175128845171
 30
0.0
 10
24.67956927879998
 20
14.50477017394901
 30
0.0
 10
24.59553347803976
 20
14.51105025573454
 30
0.0
 10
24.51068377347112
 20
14.51329011901524
 30
0.0
 10
24.42783580718325
 20
14.52714997069633
 30
0.0
  0
SPLINE
  5
C8
330
1F
100
AcDbEntity
  8
0
  6
Continuous
 62
     7
370
    15
100
AcDbSpline
210
0.0
220
0.0
230
1.0
 70
     8
 71
     3
 72
    14
 73
    10
 74
     0
 42
0.00000001
 43
0.00000001
 40
1.0
 40
1.0
 40
1.0
 40
1.0
 40
2.0
 40
2.0
 40
2.0
 40
3.0
 40
3.0
 40
3.0
 40
4.0
 40
4.0
 40
4.0
 40
4.0
 10
27.29429339924005
 20
14.52656256469063
 30
0.0
 10
27.30017397052765
 20
14.52105197081994
 30
0.0
 10
27.31120957599364
 20
14.51883047851092
 30
0.0
 10
27.31985555987821
 20
14.51880792174823
 30
0.0
 10
27.48924987135929
 20
14.51836701842801
 30
0.0
 10
27.65864418284038
 20
14.5184702679397
 30
0.0
 10
27.82803942449725
 20
14.51852142760767
 30
0.0
 10
27.83402045476921
 20
14.51852328795922
 30
0.0
 10
27.84000241521692
 20
14.51913348327159
 30
0.0
 10
27.84980925847619
 20
14.51966926452143
 30
0.0
  0
SPLINE
  5
CB
330
1F
100
AcDbEntity
  8
0
  6
Continuous
 62
     7
370
    15
100
AcDbSpline
210
0.0
220
0.0
230
1.0
 70
     8
 71
     3
 72
     8
 73
     4
 74
     0
 42
0.00000001
 43
0.00000001
 40
0.0
 40
0.0
 40
0.0
 40
0.0
 40
1.0
 40
1.0
 40
1.0
 40
1.0
 10
27.00181171718428
 20
14.80302313163812
 30
0.0
 10
27.09978713219886
 20
14.71017345026485
 30
0.0
 10
27.19671702963556
 20
14.61802302853493
 30
0.0
 10
27.29429339924005
 20
14.52656256469063
 30
0.0
  0
SPLINE
  5
CC
330
1F
100
AcDbEntity
  8
0
  6
Continuous
 62
     7
370
    15
100
AcDbSpline
210
0.0
220
0.0
230
1.0
 70
     8
 71
     3
 72
    14
 73
    10
 74
     0
 42
0.00000001
 43
0.00000001
 40
2.0
 40
2.0
 40
2.0
 40
2.0
 40
3.0
 40
3.0
 40
3.0
 40
4.0
 40
4.0
 40
4.0
 40
5.0
 40
5.0
 40
5.0
 40
5.0
 10
26.49886474221236
 20
15.78725712461715
 30
0.0
 10
26.49324182961612
 20
15.79250761808507
 30
0.0
 10
26.48333917825141
 20
15.7955896392635
 30
0.0
 10
26.47542059182759
 20
15.79561207975422
 30
0.0
 10
26.30912841657619
 20
15.79608414396308
 30
0.0
 10
26.14283531114904
 20
15.79598101072336
 30
0.0
 10
25.97654220572185
 20
15.79591380552318
 30
0.0
 10
25.97134810416064
 20
15.79591171262767
 30
0.0
 10
25.96615400259945
 20
15.79509164640474
 30
0.0
 10
25.95768103141015
 20
15.79437599241322
 30
0.0
  0
SPLINE
  5
CF
330
1F
100
AcDbEntity
  8
0
  6
Continuous
 62
     7
370
    15
100
AcDbSpline
210
0.0
220
0.0
230
1.0
 70
     8
 71
     3
 72
    11
 73
     7
 74
     0
 42
0.00000001
 43
0.00000001
 40
0.0
 40
0.0
 40
0.0
 40
0.0
 40
1.0
 40
1.0
 40
1.0
 40
2.0
 40
2.0
 40
2.0
 40
2.0
 10
26.95439600674692
 20
15.35846120492453
 30
0.0
 10
26.94952095547859
 20
15.36393680093146
 30
0.0
 10
26.94722900235417
 20
15.36694812875053
 30
0.0
 10
26.9445082381947
 20
15.36950297280509
 30
0.0
 10
26.79608008881775
 20
15.50888260472825
 30
0.0
 10
26.64769193699936
 20
15.64830479219339
 30
0.0
 10
26.49886474221236
 20
15.78725712461715
 30
0.0
  0
SPLINE
  5
D5
330
1F
100
AcDbEntity
  8
0
  6
Continuous
 62
     7
370
    15
100
AcDbSpline
210
0.0
220
0.0
230
1.0
 70
     8
 71
     3
 72
    14
 73
    10
 74
     0
 42
0.00000001
 43
0.00000001
 40
8.0
 40
8.0
 40
8.0
 40
8.0
 40
9.0
 40
9.0
 40
9.0
 40
10.0
 40
10.0
 40
10.0
 40
11.0
 40
11.0
 40
11.0
 40
11.0
 10
22.16397864222188
 20
15.46848727972613
 30
0.0
 10
22.11731079311243
 20
15.47278294775485
 30
0.0
 10
22.07040388882728
 20
15.47644109655764
 30
0.0
 10
22.02357930509877
 20
15.47670898718257
 30
0.0
 10
21.85533143526778
 20
15.47767148657199
 30
0.0
 10
21.68707519385476
 20
15.47708675482163
 30
0.0
 10
21.51882174296908
 20
15.47708675482163
 30
0.0
 10
21.51133661845925
 20
15.47708675482163
 30
0.0
 10
21.5038514939494
 20
15.4770868710936
 30
0.0
 10
21.4935363096258
 20
15.4770868710936
 30
0.0
  0
SPLINE
  5
D6
330
1F
100
AcDbEntity
  8
0
  6
Continuous
 62
     7
370
    15
100
AcDbSpline
210
0.0
220
0.0
230
1.0
 70
     8
 71
     3
 72
     8
 73
     4
 74
     0
 42
0.00000001
 43
0.00000001
 40
7.0
 40
7.0
 40
7.0
 40
7.0
 40
8.0
 40
8.0
 40
8.0
 40
8.0
 10
22.2401939901032
 20
15.40153566871992
 30
0.0
 10
22.23065457238098
 20
15.43992111640318
 30
0.0
 10
22.20453523645
 20
15.46475390295703
 30
0.0
 10
22.16397864222188
 20
15.46848727972613
 30
0.0
  0
SPLINE
  5
D7
330
1F
100
AcDbEntity
  8
0
  6
Continuous
 62
     7
370
    15
100
AcDbSpline
210
0.0
220
0.0
230
1.0
 70
     8
 71
     3
 72
    11
 73
     7
 74
     0
 42
0.00000001
 43
0.00000001
 40
5.0
 40
5.0
 40
5.0
 40
5.0
 40
6.0
 40
6.0
 40
6.0
 40
7.0
 40
7.0
 40
7.0
 40
7.0
 10
22.1702740719078
 20
15.15906558516237
 30
0.0
 10
22.20589515344185
 20
15.16595330427686
 30
0.0
 10
22.23177450402133
 20
15.18855052961302
 30
0.0
 10
22.24013910973211
 20
15.22427427929892
 30
0.0
 10
22.25389082847869
 20
15.28300511302445
 30
0.0
 10
22.25478519249213
 20
15.34282448495776
 30
0.0
 10
22.2401939901032
 20
15.40153566871992
 30
0.0
  0
SPLINE
  5
D8
330
1F
100
AcDbEntity
  8
0
  6
Continuous
 62
     7
370
    15
100
AcDbSpline
210
0.0
220
0.0
230
1.0
 70
     8
 71
     3
 72
    14
 73
    10
 74
     0
 42
0.00000001
 43
0.00000001
 40
2.0
 40
2.0
 40
2.0
 40
2.0
 40
3.0
 40
3.0
 40
3.0
 40
4.0
 40
4.0
 40
4.0
 40
5.0
 40
5.0
 40
5.0
 40
5.0
 10
21.49306750103217
 20
15.17105950422677
 30
0.0
 10
21.49286611797557
 20
15.15240366621874
 30
0.0
 10
21.49959407939968
 20
15.14944582350707
 30
0.0
 10
21.51596610332136
 20
15.14948651869749
 30
0.0
 10
21.7039002133818
 20
15.14995358321153
 30
0.0
 10
21.89183804414537
 20
15.14940036116576
 30
0.0
 10
22.07977075894214
 20
15.15017356978373
 30
0.0
 10
22.1099865890127
 20
15.15029786452247
 30
0.0
 10
22.14061727748162
 20
15.15333128401634
 30
0.0
 10
22.1702740719078
 20
15.15906558516237
 30
0.0
  0
SPLINE
  5
D9
330
1F
100
AcDbEntity
  8
0
  6
Continuous
 62
     7
370
    15
100
AcDbSpline
210
0.0
220
0.0
230
1.0
 70
     8
 71
     3
 72
    11
 73
     7
 74
     0
 42
0.00000001
 43
0.00000001
 40
0.0
 40
0.0
 40
0.0
 40
0.0
 40
1.0
 40
1.0
 40
1.0
 40
2.0
 40
2.0
 40
2.0
 40
2.0
 10
21.4935363096258
 20
15.4770868710936
 30
0.0
 10
21.4935363096258
 20
15.4673719989647
 30
0.0
 10
21.4935363096258
 20
15.46111726446919
 30
0.0
 10
21.4935363096258
 20
15.45486252997369
 30
0.0
 10
21.4935367747137
 20
15.36025981606911
 30
0.0
 10
21.49408697368816
 20
15.26565117229394
 30
0.0
 10
21.49306750103217
 20
15.17105950422677
 30
0.0
  0
CIRCLE
  5
DA
330
1F
100
AcDbEntity
  8
0
  6
Continuous
 62
     7
370
    15
100
AcDbCircle
 10
69.875
 20
11.947025493
 30
0.0
 40
2.254919329646604
  0
CIRCLE
  5
DB
330
1F
100
AcDbEntity
  8
0
  6
Continuous
 62
     7
370
    15
100
AcDbCircle
 10
37.875
 20
11.947025493
 30
0.0
 40
2.254919329646558
  0
CIRCLE
  5
DC
330
1F
100
AcDbEntity
  8
0
  6
Continuous
 62
     7
370
    15
100
AcDbCircle
 10
5.875
 20
11.947025493
 30
0.0
 40
2.254919329646569
  0
SPLINE
  5
E2
330
1F
100
AcDbEntity
  8
0
  6
Continuous
 62
     7
370
    15
100
AcDbSpline
210
0.0
220
0.0
230
1.0
 70
     8
 71
     3
 72
    17
 73
    13
 74
     0
 42
0.00000001
 43
0.00000001
 40
10.0
 40
10.0
 40
10.0
 40
10.0
 40
11.0
 40
11.0
 40
11.0
 40
12.0
 40
12.0
 40
12.0
 40
13.0
 40
13.0
 40
13.0
 40
14.0
 40
14.0
 40
14.0
 40
14.0
 10
25.51040786745948
 20
14.97278276965719
 30
0.0
 10
25.52842444216199
 20
15.09651568222391
 30
0.0
 10
25.52484326540507
 20
15.2209542493925
 30
0.0
 10
25.50787778933509
 20
15.34461018991334
 30
0.0
 10
25.49834441775545
 20
15.4140962973789
 30
0.0
 10
25.45878962284347
 20
15.45877461676468
 30
0.0
 10
25.38703865362313
 20
15.47024205633701
 30
0.0
 10
25.37202375616594
 20
15.47264190985205
 30
0.0
 10
25.35683398566192
 20
15.47475317633102
 30
0.0
 10
25.34166560920087
 20
15.47526116857943
 30
0.0
 10
25.24020854623797
 20
15.47865933325141
 30
0.0
 10
25.13873567028677
 20
15.48158741033809
 30
0.0
 10
25.03726837539024
 20
15.4846678037089
 30
0.0
  0
SPLINE
  5
E3
330
1F
100
AcDbEntity
  8
0
  6
Continuous
 62
     7
370
    15
100
AcDbSpline
210
0.0
220
0.0
230
1.0
 70
     8
 71
     3
 72
    11
 73
     7
 74
     0
 42
0.00000001
 43
0.00000001
 40
8.0
 40
8.0
 40
8.0
 40
8.0
 40
9.0
 40
9.0
 40
9.0
 40
10.0
 40
10.0
 40
10.0
 40
10.0
 10
25.22103297251229
 20
14.83508815116133
 30
0.0
 10
25.27543709359243
 20
14.83622691886124
 30
0.0
 10
25.33023932990687
 20
14.83924789725404
 30
0.0
 10
25.38395698126062
 20
14.84739181876081
 30
0.0
 10
25.46278379764718
 20
14.85934248465136
 30
0.0
 10
25.49899461062638
 20
14.89440336782132
 30
0.0
 10
25.51040786745948
 20
14.97278276965719
 30
0.0
  0
SPLINE
  5
E4
330
1F
100
AcDbEntity
  8
0
  6
Continuous
 62
     7
370
    15
100
AcDbSpline
210
0.0
220
0.0
230
1.0
 70
     8
 71
     3
 72
    14
 73
    10
 74
     0
 42
0.00000001
 43
0.00000001
 40
1.0
 40
1.0
 40
1.0
 40
1.0
 40
2.0
 40
2.0
 40
2.0
 40
3.0
 40
3.0
 40
3.0
 40
4.0
 40
4.0
 40
4.0
 40
4.0
 10
25.0372023329098
 20
15.48117557501105
 30
0.0
 10
24.98452089737612
 20
15.48117557501105
 30
0.0
 10
24.93180318498696
 20
15.48241026708838
 30
0.0
 10
24.87916732806651
 20
15.48085640844618
 30
0.0
 10
24.81642790181267
 20
15.47900431219422
 30
0.0
 10
24.75365684958226
 20
15.47606611944592
 30
0.0
 10
24.69108578514478
 20
15.47121234594859
 30
0.0
 10
24.61848277490903
 20
15.4655802478665
 30
0.0
 10
24.57386875392407
 20
15.42810207038563
 30
0.0
 10
24.56079234279455
 20
15.35700920053037
 30
0.0
  0
SPLINE
  5
E5
330
1F
100
AcDbEntity
  8
0
  6
Continuous
 62
     7
370
    15
100
AcDbSpline
210
0.0
220
0.0
230
1.0
 70
     8
 71
     3
 72
    17
 73
    13
 74
     0
 42
0.00000001
 43
0.00000001
 40
4.0
 40
4.0
 40
4.0
 40
4.0
 40
5.0
 40
5.0
 40
5.0
 40
6.0
 40
6.0
 40
6.0
 40
7.0
 40
7.0
 40
7.0
 40
8.0
 40
8.0
 40
8.0
 40
8.0
 10
24.56079234279455
 20
15.35700920053037
 30
0.0
 10
24.53767840481202
 20
15.23134221997098
 30
0.0
 10
24.53738446926524
 20
15.10428078964386
 30
0.0
 10
24.55260679592159
 20
14.97786873828383
 30
0.0
 10
24.56228527492306
 20
14.89749480702954
 30
0.0
 10
24.60381018213924
 20
14.85649707693724
 30
0.0
 10
24.68488151268538
 20
14.84684068961055
 30
0.0
 10
24.75902117331139
 20
14.83800983328952
 30
0.0
 10
24.83410868305823
 20
14.83513093924728
 30
0.0
 10
24.90885202776611
 20
14.83383427420853
 30
0.0
 10
25.01288009658777
 20
14.8320295006494
 30
0.0
 10
25.11700211316329
 20
14.83290967948219
 30
0.0
 10
25.22103297251229
 20
14.83508815116133
 30
0.0
  0
SPLINE
  5
E8
330
1F
100
AcDbEntity
  8
0
  6
Continuous
 62
     7
370
    15
100
AcDbSpline
210
0.0
220
0.0
230
1.0
 70
     8
 71
     3
 72
    17
 73
    13
 74
     0
 42
0.00000001
 43
0.00000001
 40
5.0
 40
5.0
 40
5.0
 40
5.0
 40
6.0
 40
6.0
 40
6.0
 40
7.0
 40
7.0
 40
7.0
 40
8.0
 40
8.0
 40
8.0
 40
9.0
 40
9.0
 40
9.0
 40
9.0
 10
19.98682734760013
 20
15.39876990730704
 30
0.0
 10
19.97737769184078
 20
15.4445936218952
 30
0.0
 10
19.95337822651475
 20
15.4680953269064
 30
0.0
 10
19.90663968404597
 20
15.47176312628293
 30
0.0
 10
19.8523639272236
 20
15.47602228491223
 30
0.0
 10
19.79771749535249
 20
15.47669689489742
 30
0.0
 10
19.74322593774893
 20
15.47686955877676
 30
0.0
 10
19.56298763701274
 20
15.47744080297828
 30
0.0
 10
19.38274724338104
 20
15.4770988471068
 30
0.0
 10
19.20250754738117
 20
15.47703245581042
 30
0.0
 10
19.19582260658695
 20
15.47703001409901
 30
0.0
 10
19.18913836342455
 20
15.47624622473151
 30
0.0
 10
19.18205879555523
 20
15.47580183325215
 30
0.0
  0
SPLINE
  5
E9
330
1F
100
AcDbEntity
  8
0
  6
Continuous
 62
     7
370
    15
100
AcDbSpline
210
0.0
220
0.0
230
1.0
 70
     8
 71
     3
 72
     8
 73
     4
 74
     0
 42
0.00000001
 43
0.00000001
 40
4.0
 40
4.0
 40
4.0
 40
4.0
 40
5.0
 40
5.0
 40
5.0
 40
5.0
 10
19.98520000507125
 20
15.23829330731053
 30
0.0
 10
19.9973011268944
 20
15.29145727153064
 30
0.0
 10
19.99784295428683
 20
15.34534933084334
 30
0.0
 10
19.98682734760013
 20
15.39876990730704
 30
0.0
  0
SPLINE
  5
EA
330
1F
100
AcDbEntity
  8
0
  6
Continuous
 62
     7
370
    15
100
AcDbSpline
210
0.0
220
0.0
230
1.0
 70
     8
 71
     3
 72
    17
 73
    13
 74
     0
 42
0.00000001
 43
0.00000001
 40
0.0
 40
0.0
 40
0.0
 40
0.0
 40
1.0
 40
1.0
 40
1.0
 40
2.0
 40
2.0
 40
2.0
 40
3.0
 40
3.0
 40
3.0
 40
4.0
 40
4.0
 40
4.0
 40
4.0
 10
19.18205879555523
 20
15.16211505018847
 30
0.0
 10
19.18997528908353
 20
15.16211505018847
 30
0.0
 10
19.1967853385203
 20
15.16211505018847
 30
0.0
 10
19.20359515541314
 20
15.16211505018847
 30
0.0
 10
19.39271965792933
 20
15.16211516646045
 30
0.0
 10
19.58184462553342
 20
15.16186878615045
 30
0.0
 10
19.77096843041777
 20
15.16230375960004
 30
0.0
 10
19.81342816429388
 20
15.16240142805705
 30
0.0
 10
19.85591812888286
 20
15.16420108564936
 30
0.0
 10
19.89832949361836
 20
15.16644897169617
 30
0.0
 10
19.9438104384312
 20
15.16885952223268
 30
0.0
 10
19.97519177875539
 20
15.19432192151832
 30
0.0
 10
19.98520000507125
 20
15.23829330731053
 30
0.0
  0
CIRCLE
  5
EC
330
1F
100
AcDbEntity
  8
0
  6
Continuous
 62
     7
370
    15
100
AcDbCircle
 10
5.875
 20
11.947025493
 30
0.0
 40
2.212724675358917
  0
CIRCLE
  5
ED
330
1F
100
AcDbEntity
  8
0
  6
Continuous
 62
     7
370
    15
100
AcDbCircle
 10
69.875
 20
11.947025493
 30
0.0
 40
2.212724675358885
  0
CIRCLE
  5
EE
330
1F
100
AcDbEntity
  8
0
  6
Continuous
 62
     7
370
    15
100
AcDbCircle
 10
37.875
 20
11.947025493
 30
0.0
 40
2.212724675358903
  0
LINE
  5
10B
330
1F
100
AcDbEntity
  8
0
  6
Continuous
 62
     7
370
    15
100
AcDbLine
 10
45.75
 20
5.2506619393
 30
0.0
 11
30.0
 21
5.2506619393
 31
0.0
  0
LINE
  5
10C
330
1F
100
AcDbEntity
  8
0
  6
Continuous
 62
     7
370
    15
100
AcDbLine
 10
77.75
 20
5.2506619393
 30
0.0
 11
62.0
 21
5.2506619393
 31
0.0
  0
LINE
  5
10D
330
1F
100
AcDbEntity
  8
0
  6
Continuous
 62
     7
370
    15
100
AcDbLine
 10
62.0
 20
-4.052974507
 30
0.0
 11
62.0
 21
5.2504334821
 31
0.0
  0
LINE
  5
10E
330
1F
100
AcDbEntity
  8
0
  6
Continuous
 62
     7
370
    15
100
AcDbLine
 10
77.75
 20
-4.052974507
 30
0.0
 11
77.75
 21
5.2504334821
 31
0.0
  0
LINE
  5
10F
330
1F
100
AcDbEntity
  8
0
  6
Continuous
 62
     7
370
    15
100
AcDbLine
 10
45.75
 20
-4.052974507
 30
0.0
 11
45.75
 21
5.2504334821
 31
0.0
  0
LINE
  5
110
330
1F
100
AcDbEntity
  8
0
  6
Continuous
 62
     7
370
    15
100
AcDbLine
 10
-3.0
 20
-4.052974507
 30
0.0
 11
94.7
 21
-4.052974507
 31
0.0
  0
LINE
  5
111
330
1F
100
AcDbEntity
  8
0
  6
Continuous
 62
     7
370
    15
100
AcDbLine
 10
13.75
 20
-4.052974507
 30
0.0
 11
13.75
 21
5.2504334821
 31
0.0
  0
LINE
  5
112
330
1F
100
AcDbEntity
  8
0
  6
Continuous
 62
     7
370
    15
100
AcDbLine
 10
30.0
 20
-4.052974507
 30
0.0
 11
30.0
 21
5.2504334821
 31
0.0
  0
LINE
  5
113
330
1F
100
AcDbEntity
  8
0
  6
Continuous
 62
     7
370
    15
100
AcDbLine
 10
0.1505705077
 20
5.2504334821
 30
0.0
 11
13.75
 21
5.2504334821
 31
0.0
  0
LINE
  5
114
330
1F
100
AcDbEntity
  8
0
  6
Continuous
 62
     7
370
    15
100
AcDbLine
 10
0.0
 20
0.0
 30
0.0
 11
0.0988530175
 21
0.0988530175
 31
0.0
  0
LINE
  5
115
330
1F
100
AcDbEntity
  8
0
  6
Continuous
 62
     7
370
    15
100
AcDbLine
 10
0.1245746778
 20
1.6248031699
 30
0.0
 11
0.1239349487
 21
3.7244833297
 31
0.0
  0
LINE
  5
116
330
1F
100
AcDbEntity
  8
0
  6
Continuous
 62
     7
370
    15
100
AcDbLine
 10
0.0
 20
-4.052974507
 30
0.0
 11
0.0
 21
0.0
 31
0.0
  0
LINE
  5
117
330
1F
100
AcDbEntity
  8
0
  6
Continuous
 62
     7
370
    15
100
AcDbLine
 10
28.2186500006
 20
16.4126199995
 30
0.0
 11
28.2186500006
 21
16.3364199995
 31
0.0
  0
LINE
  5
118
330
1F
100
AcDbEntity
  8
0
  6
Continuous
 62
     7
370
    15
100
AcDbLine
 10
15.5313499994
 20
14.8124199999
 30
0.0
 11
15.5313500037
 21
14.9381499999
 31
0.0
  0
LINE
  5
119
330
1F
100
AcDbEntity
  8
0
  6
Continuous
 62
     7
370
    15
100
AcDbLine
 10
16.5257600035
 20
14.5
 30
0.0
 11
16.1028500036
 21
14.5
 31
0.0
  0
LINE
  5
11A
330
1F
100
AcDbEntity
  8
0
  6
Continuous
 62
     7
370
    15
100
AcDbLine
 10
17.0455395557
 20
15.3969581574
 30
0.0
 11
16.6731179856
 21
15.3969581574
 31
0.0
  0
LINE
  5
11B
330
1F
100
AcDbEntity
  8
0
  6
Continuous
 62
     7
370
    15
100
AcDbLine
 10
15.5313500037
 20
14.9381499999
 30
0.0
 11
15.9063381904
 21
14.9381499999
 31
0.0
  0
LINE
  5
11C
330
1F
100
AcDbEntity
  8
0
  6
Continuous
 62
     7
370
    15
100
AcDbLine
 10
92.0
 20
18.947025493
 30
0.0
 11
92.0
 21
-4.052974507
 31
0.0
  0
LINE
  5
11D
330
1F
100
AcDbEntity
  8
0
  6
Continuous
 62
     7
370
    15
100
AcDbLine
 10
-3.0
 20
-6.052974507
 30
0.0
 11
-3.0
 21
18.947025493
 31
0.0
  0
LINE
  5
11E
330
1F
100
AcDbEntity
  8
0
  6
Continuous
 62
     7
370
    15
100
AcDbLine
 10
0.0
 20
7.447025493
 30
0.0
 11
-3.0
 21
7.447025493
 31
0.0
  0
LINE
  5
11F
330
1F
100
AcDbEntity
  8
0
  6
Continuous
 62
     7
370
    15
100
AcDbLine
 10
0.0
 20
18.947025493
 30
0.0
 11
0.0
 21
7.447025493
 31
0.0
  0
LINE
  5
120
330
1F
100
AcDbEntity
  8
0
  6
Continuous
 62
     7
370
    15
100
AcDbLine
 10
44.7530344885
 20
18.947025493
 30
0.0
 11
44.9839745962
 21
18.547025493
 31
0.0
  0
LINE
  5
121
330
1F
100
AcDbEntity
  8
0
  6
Continuous
 62
     7
370
    15
100
AcDbLine
 10
46.7160254038
 20
18.547025493
 30
0.0
 11
46.9469655115
 21
18.947025493
 31
0.0
  0
LINE
  5
122
330
1F
100
AcDbEntity
  8
0
  6
Continuous
 62
     7
370
    15
100
AcDbLine
 10
46.8461886471
 20
18.947025493
 30
0.0
 11
94.7
 21
18.947025493
 31
0.0
  0
LINE
  5
123
330
1F
100
AcDbEntity
  8
0
  6
Continuous
 62
     7
370
    15
100
AcDbLine
 10
17.7256595534
 20
14.5212489355
 30
0.0
 11
18.1331151477
 21
14.5212489355
 31
0.0
  0
LINE
  5
124
330
1F
100
AcDbEntity
  8
0
  6
Continuous
 62
     7
370
    15
100
AcDbLine
 10
18.6991301336
 20
15.4724532004
 30
0.0
 11
18.6991301336
 21
15.7941249612
 31
0.0
  0
LINE
  5
125
330
1F
100
AcDbEntity
  8
0
  6
Continuous
 62
     7
370
    15
100
AcDbLine
 10
18.6991301336
 20
15.7941249612
 30
0.0
 11
17.1575321383
 21
15.7941249612
 31
0.0
  0
LINE
  5
126
330
1F
100
AcDbEntity
  8
0
  6
Continuous
 62
     7
370
    15
100
AcDbLine
 10
17.1575321383
 20
15.7941249612
 30
0.0
 11
17.1575321383
 21
15.4712996662
 31
0.0
  0
LINE
  5
127
330
1F
100
AcDbEntity
  8
0
  6
Continuous
 62
     7
370
    15
100
AcDbLine
 10
18.7942922319
 20
14.5206652502
 30
0.0
 11
19.1814030216
 21
14.5206652502
 31
0.0
  0
LINE
  5
128
330
1F
100
AcDbEntity
  8
0
  6
Continuous
 62
     7
370
    15
100
AcDbLine
 10
19.1814030216
 20
14.5206652502
 30
0.0
 11
19.1814030216
 21
14.8437236706
 31
0.0
  0
LINE
  5
129
330
1F
100
AcDbEntity
  8
0
  6
Continuous
 62
     7
370
    15
100
AcDbLine
 10
19.9857041603
 20
14.520793382
 30
0.0
 11
20.3676571253
 21
14.520793382
 31
0.0
  0
LINE
  5
12A
330
1F
100
AcDbEntity
  8
0
  6
Continuous
 62
     7
370
    15
100
AcDbLine
 10
18.7942922319
 20
15.7949346792
 30
0.0
 11
18.7942922319
 21
14.5206652502
 31
0.0
  0
LINE
  5
12B
330
1F
100
AcDbEntity
  8
0
  6
Continuous
 62
     7
370
    15
100
AcDbLine
 10
20.5202905994
 20
15.7932540841
 30
0.0
 11
20.5202905994
 21
14.5211801025
 31
0.0
  0
LINE
  5
12C
330
1F
100
AcDbEntity
  8
0
  6
Continuous
 62
     7
370
    15
100
AcDbLine
 10
20.5202905994
 20
14.5211801025
 30
0.0
 11
20.9247993969
 21
14.5211801025
 31
0.0
  0
LINE
  5
12D
330
1F
100
AcDbEntity
  8
0
  6
Continuous
 62
     7
370
    15
100
AcDbLine
 10
20.9247993969
 20
14.5211801025
 30
0.0
 11
20.9247993969
 21
15.7932540841
 31
0.0
  0
LINE
  5
12E
330
1F
100
AcDbEntity
  8
0
  6
Continuous
 62
     7
370
    15
100
AcDbLine
 10
20.9247993969
 20
15.7932540841
 30
0.0
 11
20.5202905994
 21
15.7932540841
 31
0.0
  0
LINE
  5
12F
330
1F
100
AcDbEntity
  8
0
  6
Continuous
 62
     7
370
    15
100
AcDbLine
 10
21.1070831542
 20
15.7949346792
 30
0.0
 11
21.1070831542
 21
14.5208566339
 31
0.0
  0
LINE
  5
130
330
1F
100
AcDbEntity
  8
0
  6
Continuous
 62
     7
370
    15
100
AcDbLine
 10
21.1070831542
 20
14.5208566339
 30
0.0
 11
21.4938190831
 21
14.5208566339
 31
0.0
  0
LINE
  5
131
330
1F
100
AcDbEntity
  8
0
  6
Continuous
 62
     7
370
    15
100
AcDbLine
 10
21.4938190831
 20
14.5208566339
 30
0.0
 11
21.4938190831
 21
14.8322950658
 31
0.0
  0
LINE
  5
132
330
1F
100
AcDbEntity
  8
0
  6
Continuous
 62
     7
370
    15
100
AcDbLine
 10
24.0690800309
 20
14.8451828838
 30
0.0
 11
23.1616414667
 21
14.8451828838
 31
0.0
  0
LINE
  5
133
330
1F
100
AcDbEntity
  8
0
  6
Continuous
 62
     7
370
    15
100
AcDbLine
 10
23.1616414667
 20
14.8451828838
 30
0.0
 11
23.1616414667
 21
15.7943719229
 31
0.0
  0
LINE
  5
134
330
1F
100
AcDbEntity
  8
0
  6
Continuous
 62
     7
370
    15
100
AcDbLine
 10
23.1616414667
 20
15.7943719229
 30
0.0
 11
22.7526617793
 21
15.7943719229
 31
0.0
  0
LINE
  5
135
330
1F
100
AcDbEntity
  8
0
  6
Continuous
 62
     7
370
    15
100
AcDbLine
 10
22.7526617793
 20
15.7943719229
 30
0.0
 11
22.7526617793
 21
14.5192113855
 31
0.0
  0
LINE
  5
136
330
1F
100
AcDbEntity
  8
0
  6
Continuous
 62
     7
370
    15
100
AcDbLine
 10
22.7526617793
 20
14.5192113855
 30
0.0
 11
24.0690800309
 21
14.5192113855
 31
0.0
  0
LINE
  5
137
330
1F
100
AcDbEntity
  8
0
  6
Continuous
 62
     7
370
    15
100
AcDbLine
 10
24.0690800309
 20
14.5192113855
 30
0.0
 11
24.0690800309
 21
14.8451828838
 31
0.0
  0
LINE
  5
138
330
1F
100
AcDbEntity
  8
0
  6
Continuous
 62
     7
370
    15
100
AcDbLine
 10
25.2620900013
 20
14.5
 30
0.0
 11
24.8010800014
 21
14.5
 31
0.0
  0
LINE
  5
139
330
1F
100
AcDbEntity
  8
0
  6
Continuous
 62
     7
370
    15
100
AcDbLine
 10
27.8498092585
 20
14.5196692645
 30
0.0
 11
27.2986652254
 21
15.0371304698
 31
0.0
  0
LINE
  5
13A
330
1F
100
AcDbEntity
  8
0
  6
Continuous
 62
     7
370
    15
100
AcDbLine
 10
27.2986652254
 20
15.0371304698
 30
0.0
 11
27.0018117172
 21
14.8030231316
 31
0.0
  0
LINE
  5
13B
330
1F
100
AcDbEntity
  8
0
  6
Continuous
 62
     7
370
    15
100
AcDbLine
 10
25.9576810314
 20
15.7943759924
 30
0.0
 11
26.6668730918
 21
15.1211730144
 31
0.0
  0
LINE
  5
13C
330
1F
100
AcDbEntity
  8
0
  6
Continuous
 62
     7
370
    15
100
AcDbLine
 10
26.6668730918
 20
15.1211730144
 30
0.0
 11
26.9543960067
 21
15.3584612049
 31
0.0
  0
LINE
  5
13D
330
1F
100
AcDbEntity
  8
0
  6
Continuous
 62
     7
370
    15
100
AcDbLine
 10
-3.0
 20
18.947025493
 30
0.0
 11
44.8538113529
 21
18.947025493
 31
0.0
  0
LINE
  5
13E
330
1F
100
AcDbEntity
  8
0
  6
Continuous
 62
     7
370
    15
100
AcDbLine
 10
46.6404427555
 20
18.5906631554
 30
0.0
 11
46.8461886471
 21
18.947025493
 31
0.0
  0
LINE
  5
13F
330
1F
100
AcDbEntity
  8
0
  6
Continuous
 62
     7
370
    15
100
AcDbLine
 10
44.8538113529
 20
18.947025493
 30
0.0
 11
45.0595572445
 21
18.5906631554
 31
0.0
  0
LINE
  5
140
330
1F
100
AcDbEntity
  8
0
  6
Continuous
 62
     7
370
    15
100
AcDbLine
 10
25.0372683754
 20
15.4846678037
 30
0.0
 11
25.0372023329
 21
15.481175575
 31
0.0
  0
LINE
  5
141
330
1F
100
AcDbEntity
  8
0
  6
Continuous
 62
     7
370
    15
100
AcDbLine
 10
19.1820587956
 20
15.4758018333
 30
0.0
 11
19.1820587956
 21
15.1621150502
 31
0.0
  0
LINE
  5
142
330
1F
100
AcDbEntity
  8
0
  6
Continuous
 62
     7
370
    15
100
AcDbLine
 10
94.7
 20
18.947025493
 30
0.0
 11
94.7
 21
-4.052974507
 31
0.0
  0
LINE
  5
143
330
1F
100
AcDbEntity
  8
0
  6
Continuous
 62
     7
370
    15
100
AcDbLine
 10
45.3
 20
-6.052974507
 30
0.0
 11
-3.0
 21
-6.052974507
 31
0.0
  0
LINE
  5
144
330
1F
100
AcDbEntity
  8
0
  6
Continuous
 62
     7
370
    15
100
AcDbLine
 10
45.8
 20
-4.552974507
 30
0.0
 11
45.8
 21
-5.552974507
 31
0.0
  0
LINE
  5
145
330
1F
100
AcDbEntity
  8
0
  6
PHANTOM
 62
     7
370
     0
100
AcDbLine
 10
77.5658430404
 20
5.2240985682
 30
0.0
 11
62.1841569596
 21
5.2240985682
 31
0.0
  0
LINE
  5
146
330
1F
100
AcDbEntity
  8
0
  6
PHANTOM
 62
     7
370
     0
100
AcDbLine
 10
74.75
 20
3.2244031779
 30
0.0
 11
65.0
 21
3.2244031779
 31
0.0
  0
LINE
  5
147
330
1F
100
AcDbEntity
  8
0
  6
PHANTOM
 62
     7
370
     0
100
AcDbLine
 10
65.0
 20
3.2244031779
 30
0.0
 11
65.0
 21
-4.052974507
 31
0.0
  0
LINE
  5
148
330
1F
100
AcDbEntity
  8
0
  6
PHANTOM
 62
     7
370
     0
100
AcDbLine
 10
74.75
 20
3.2244031779
 30
0.0
 11
74.75
 21
-4.052974507
 31
0.0
  0
LINE
  5
149
330
1F
100
AcDbEntity
  8
0
  6
PHANTOM
 62
     7
370
     0
100
AcDbLine
 10
33.0
 20
3.2244031779
 30
0.0
 11
33.0
 21
-4.052974507
 31
0.0
  0
LINE
  5
14A
330
1F
100
AcDbEntity
  8
0
  6
PHANTOM
 62
     7
370
     0
100
AcDbLine
 10
42.75
 20
3.2244031779
 30
0.0
 11
33.0
 21
3.2244031779
 31
0.0
  0
LINE
  5
14B
330
1F
100
AcDbEntity
  8
0
  6
PHANTOM
 62
     7
370
     0
100
AcDbLine
 10
42.75
 20
3.2244031779
 30
0.0
 11
42.75
 21
-4.052974507
 31
0.0
  0
LINE
  5
14C
330
1F
100
AcDbEntity
  8
0
  6
PHANTOM
 62
     7
370
     0
100
AcDbLine
 10
45.5658430404
 20
5.2240985682
 30
0.0
 11
30.1841569596
 21
5.2240985682
 31
0.0
  0
LINE
  5
14D
330
1F
100
AcDbEntity
  8
0
  6
PHANTOM
 62
     7
370
     0
100
AcDbLine
 10
10.75
 20
3.2244031779
 30
0.0
 11
3.159298075
 21
3.2244031779
 31
0.0
  0
LINE
  5
14E
330
1F
100
AcDbEntity
  8
0
  6
PHANTOM
 62
     7
370
     0
100
AcDbLine
 10
13.5658430404
 20
5.2240985682
 30
0.0
 11
0.3434550346
 21
5.2240985682
 31
0.0
  0
LINE
  5
14F
330
1F
100
AcDbEntity
  8
0
  6
PHANTOM
 62
     7
370
     0
100
AcDbLine
 10
3.159298075
 20
3.2244031779
 30
0.0
 11
3.159298075
 21
-4.052974507
 31
0.0
  0
LINE
  5
150
330
1F
100
AcDbEntity
  8
0
  6
PHANTOM
 62
     7
370
     0
100
AcDbLine
 10
0.1597549895
 20
5.2412490003
 30
0.0
 11
0.1597549895
 21
-4.052974507
 31
0.0
  0
LINE
  5
151
330
1F
100
AcDbEntity
  8
0
  6
PHANTOM
 62
     7
370
     0
100
AcDbLine
 10
10.75
 20
3.2244031779
 30
0.0
 11
10.75
 21
-4.052974507
 31
0.0
  0
LINE
  5
152
330
1F
100
AcDbEntity
  8
0
  6
PHANTOM
 62
     7
370
     0
100
AcDbLine
 10
45.75
 20
5.2504334821
 30
0.0
 11
30.0
 21
5.2504334821
 31
0.0
  0
LINE
  5
153
330
1F
100
AcDbEntity
  8
0
  6
PHANTOM
 62
     7
370
     0
100
AcDbLine
 10
77.75
 20
5.2504334821
 30
0.0
 11
62.0
 21
5.2504334821
 31
0.0
  0
LINE
  5
154
330
1F
100
AcDbEntity
  8
0
  6
PHANTOM
 62
     7
370
     0
100
AcDbLine
 10
46.6404427555
 20
18.5906631554
 30
0.0
 11
46.7160254038
 21
18.547025493
 31
0.0
  0
LINE
  5
155
330
1F
100
AcDbEntity
  8
0
  6
PHANTOM
 62
     7
370
     0
100
AcDbLine
 10
45.0595572445
 20
18.5906631554
 30
0.0
 11
44.9839745962
 21
18.547025493
 31
0.0
  0
LINE
  5
156
330
1F
100
AcDbEntity
  8
0
  6
PHANTOM
 62
     7
370
     0
100
AcDbLine
 10
-3.0
 20
7.947025493
 30
0.0
 11
0.0
 21
7.947025493
 31
0.0
  0
ARC
  5
157
330
1F
100
AcDbEntity
  8
0
  6
Continuous
 62
     7
370
    15
100
AcDbCircle
 10
62.163144743
 20
5.9576163051
 30
0.0
 40
0.7338186311928513
100
AcDbArc
 50
257.1544906316
 51
271.6408358373
  0
ARC
  5
158
330
1F
100
AcDbEntity
  8
0
  6
Continuous
 62
     7
370
    15
100
AcDbCircle
 10
77.586855257
 20
5.9576163051
 30
0.0
 40
0.7338186311933522
100
AcDbArc
 50
268.3591641627
 51
282.8455093684
  0
ARC
  5
159
330
1F
100
AcDbEntity
  8
0
  6
Continuous
 62
     7
370
    15
100
AcDbCircle
 10
45.586855257
 20
5.9576163051
 30
0.0
 40
0.7338186311930432
100
AcDbArc
 50
268.3591641627
 51
282.8455093684
  0
ARC
  5
15A
330
1F
100
AcDbEntity
  8
0
  6
Continuous
 62
     7
370
    15
100
AcDbCircle
 10
0.3335983896
 20
6.1109133009
 30
0.0
 40
0.886869507570869
100
AcDbArc
 50
258.6957348164
 51
270.6367969365
  0
ARC
  5
15B
330
1F
100
AcDbEntity
  8
0
  6
Continuous
 62
     7
370
    15
100
AcDbCircle
 10
13.586855257
 20
5.9576163051
 30
0.0
 40
0.733818631193133
100
AcDbArc
 50
268.3591641627
 51
282.8455093684
  0
ARC
  5
15C
330
1F
100
AcDbEntity
  8
0
  6
Continuous
 62
     7
370
    15
100
AcDbCircle
 10
30.163144743
 20
5.9576163051
 30
0.0
 40
0.7338186311932066
100
AcDbArc
 50
257.1544906316
 51
271.6408358373
  0
ARC
  5
15D
330
1F
100
AcDbEntity
  8
0
  6
Continuous
 62
     7
370
    15
100
AcDbCircle
 10
-23.6571028681
 20
1.2624790775
 30
0.0
 40
23.78443746750285
100
AcDbArc
 50
357.1957508964
 51
0.872858328
  0
ARC
  5
15E
330
1F
100
AcDbEntity
  8
0
  6
Continuous
 62
     7
370
    15
100
AcDbCircle
 10
20.3472428245
 20
4.1346917166
 30
0.0
 40
20.22746776933628
100
AcDbArc
 50
176.8379751297
 51
181.1620248703
  0
ARC
  5
15F
330
1F
100
AcDbEntity
  8
0
  6
Continuous
 62
     7
370
    15
100
AcDbCircle
 10
45.85
 20
19.047025493
 30
0.0
 40
0.9999999999999994
100
AcDbArc
 50
210.0
 51
330.0
  0
ARC
  5
160
330
1F
100
AcDbEntity
  8
0
  6
Continuous
 62
     7
370
    15
100
AcDbCircle
 10
45.85
 20
19.047025493
 30
0.0
 40
0.9127246753589074
100
AcDbArc
 50
210.0
 51
330.0
  0
ARC
  5
161
330
1F
100
AcDbEntity
  8
0
  6
Continuous
 62
     7
370
    15
100
AcDbCircle
 10
45.3
 20
-5.552974507
 30
0.0
 40
0.4999999999999929
100
AcDbArc
 50
270.0
 51
0.0
  0
ARC
  5
162
330
1F
100
AcDbEntity
  8
0
  6
Continuous
 62
     7
370
    15
100
AcDbCircle
 10
46.3
 20
-4.552974507
 30
0.0
 40
0.5000000000000142
100
AcDbArc
 50
90.0
 51
180.0
  0
ENDSEC
  0
SECTION
  2
OBJECTS
  0
DICTIONARY
  5
C
330
0
100
AcDbDictionary
281
     1
  3
ACAD_GROUP
350
D
  3
ACAD_LAYOUT
350
1A
  3
ACAD_MLEADERSTYLE
350
187
  3
ACAD_MLINESTYLE
350
17
  3
ACAD_PLOTSETTINGS
350
19
  3
ACAD_PLOTSTYLENAME
350
E
  3
ACAD_SCALELIST
350
163
  3
ACAD_VISUALSTYLE
350
2A
  3
AcDbVariableDictionary
350
185
  0
DICTIONARY
  5
D
102
{ACAD_REACTORS
330
C
102
}
330
C
100
AcDbDictionary
281
     1
  0
DICTIONARY
  5
1A
102
{ACAD_REACTORS
330
C
102
}
330
C
100
AcDbDictionary
281
     1
  3
Layout1
350
1E
  3
Layout2
350
26
  3
Model
350
22
  0
DICTIONARY
  5
187
102
{ACAD_REACTORS
330
C
102
}
330
C
100
AcDbDictionary
281
     1
  0
DICTIONARY
  5
17
102
{ACAD_REACTORS
330
C
102
}
330
C
100
AcDbDictionary
281
     1
  3
Standard
350
18
  0
DICTIONARY
  5
19
102
{ACAD_REACTORS
330
C
102
}
330
C
100
AcDbDictionary
281
     1
  0
ACDBDICTIONARYWDFLT
  5
E
102
{ACAD_REACTORS
330
C
102
}
330
C
100
AcDbDictionary
281
     1
  3
Normal
350
F
100
AcDbDictionaryWithDefault
340
F
  0
DICTIONARY
  5
163
102
{ACAD_REACTORS
330
C
102
}
330
C
100
AcDbDictionary
281
     1
  3
A0
350
164
  3
A1
350
165
  3
A2
350
166
  3
A3
350
167
  3
A4
350
168
  3
A5
350
169
  3
A6
350
16A
  3
A7
350
16B
  3
A8
350
16C
  3
A9
350
16D
  3
B0
350
16E
  3
B1
350
16F
  3
B2
350
170
  3
B3
350
171
  3
B4
350
172
  3
B5
350
173
  3
B6
350
174
  3
B7
350
175
  3
B8
350
176
  3
B9
350
177
  3
C0
350
178
  3
C1
350
179
  3
C2
350
17A
  3
C3
350
17B
  3
C4
350
17C
  3
C5
350
17D
  3
C6
350
17E
  3
C7
350
17F
  3
C8
350
180
  3
C9
350
181
  3
D0
350
182
  3
D1
350
183
  3
D2
350
184
  0
DICTIONARY
  5
2A
102
{ACAD_REACTORS
330
C
102
}
330
C
100
AcDbDictionary
281
     1
  3
2dWireframe
350
2F
  3
3D Hidden
350
31
  3
3dWireframe
350
30
  3
Basic
350
32
  3
Brighten
350
36
  3
ColorChange
350
3A
  3
Conceptual
350
34
  3
Dim
350
35
  3
Facepattern
350
39
  3
Flat
350
2B
  3
FlatWithEdges
350
2C
  3
Gouraud
350
2D
  3
GouraudWithEdges
350
2E
  3
Linepattern
350
38
  3
Realistic
350
33
  3
Thicken
350
37
  0
DICTIONARY
  5
185
102
{ACAD_REACTORS
330
C
102
}
330
C
100
AcDbDictionary
281
     1
  3
CANNOSCALE
350
18A
  3
DIMASSOC
350
18B
  3
HIDETEXT
350
18C
  3
PSOLHEIGHT
350
189
  3
PSOLWIDTH
350
188
  0
LAYOUT
  5
1E
102
{ACAD_REACTORS
330
1A
102
}
330
1A
100
AcDbPlotSettings
  1

  2
none_device
  4

  6

 40
0.0
 41
0.0
 42
0.0
 43
0.0
 44
0.0
 45
0.0
 46
0.0
 47
0.0
 48
0.0
 49
0.0
140
0.0
141
0.0
142
1.0
143
1.0
 70
   688
 72
     0
 73
     0
 74
     5
  7

 75
    16
147
1.0
148
0.0
149
0.0
100
AcDbLayout
  1
Layout1
 70
     1
 71
     1
 10
0.0
 20
0.0
 11
420.0
 21
297.0
 12
0.0
 22
0.0
 32
0.0
 14
1.0000000000E+20
 24
1.0000000000E+20
 34
1.0000000000E+20
 15
-1.0000000000E+20
 25
-1.0000000000E+20
 35
-1.0000000000E+20
146
0.0
 13
0.0
 23
0.0
 33
0.0
 16
1.0
 26
0.0
 36
0.0
 17
0.0
 27
1.0
 37
0.0
 76
     0
330
1B
  0
LAYOUT
  5
26
102
{ACAD_REACTORS
330
1A
102
}
330
1A
100
AcDbPlotSettings
  1

  2
none_device
  4

  6

 40
0.0
 41
0.0
 42
0.0
 43
0.0
 44
0.0
 45
0.0
 46
0.0
 47
0.0
 48
0.0
 49
0.0
140
0.0
141
0.0
142
1.0
143
1.0
 70
   688
 72
     0
 73
     0
 74
     5
  7

 75
    16
147
1.0
148
0.0
149
0.0
100
AcDbLayout
  1
Layout2
 70
     1
 71
     2
 10
0.0
 20
0.0
 11
0.0
 21
0.0
 12
0.0
 22
0.0
 32
0.0
 14
0.0
 24
0.0
 34
0.0
 15
0.0
 25
0.0
 35
0.0
146
0.0
 13
0.0
 23
0.0
 33
0.0
 16
1.0
 26
0.0
 36
0.0
 17
0.0
 27
1.0
 37
0.0
 76
     0
330
23
  0
LAYOUT
  5
22
102
{ACAD_REACTORS
330
1A
102
}
330
1A
100
AcDbPlotSettings
  1

  2
none_device
  4
ANSI_A_(11.00_x_8.50_Inches)
  6

 40
6.35
 41
19.05
 42
6.35000508
 43
19.05000254
 44
279.4
 45
215.9
 46
3.540528678
 47
70.6473279672
 48
0.0
 49
0.0
140
0.0
141
0.0
142
0.1114636643
143
1.0
 70
  1696
 72
     0
 73
     0
 74
     0
  7

 75
     0
147
0.0179189148
148
0.0
149
0.0
100
AcDbLayout
  1
Model
 70
     1
 71
     0
 10
0.0
 20
0.0
 11
420.0
 21
297.0
 12
0.0
 22
0.0
 32
0.0
 14
-3.0
 24
-6.052974507
 34
0.0
 15
94.7
 25
18.947025493
 35
0.0
146
0.0
 13
0.0
 23
0.0
 33
0.0
 16
1.0
 26
0.0
 36
0.0
 17
0.0
 27
1.0
 37
0.0
 76
     0
330
1F
331
29
  0
MLINESTYLE
  5
18
102
{ACAD_REACTORS
330
17
102
}
330
17
100
AcDbMlineStyle
  2
Standard
 70
     0
  3

 62
   256
 51
90.0
 52
90.0
 71
     2
 49
0.5
 62
   256
  6
BYLAYER
 49
-0.5
 62
   256
  6
BYLAYER
  0
ACDBPLACEHOLDER
  5
F
102
{ACAD_REACTORS
330
E
102
}
330
E
  0
SCALE
  5
164
102
{ACAD_REACTORS
330
163
102
}
330
163
100
AcDbScale
 70
     0
300
1:1
140
1.0
141
1.0
290
     1
  0
SCALE
  5
165
102
{ACAD_REACTORS
330
163
102
}
330
163
100
AcDbScale
 70
     0
300
1:2
140
1.0
141
2.0
290
     0
  0
SCALE
  5
166
102
{ACAD_REACTORS
330
163
102
}
330
163
100
AcDbScale
 70
     0
300
1:4
140
1.0
141
4.0
290
     0
  0
SCALE
  5
167
102
{ACAD_REACTORS
330
163
102
}
330
163
100
AcDbScale
 70
     0
300
1:5
140
1.0
141
5.0
290
     0
  0
SCALE
  5
168
102
{ACAD_REACTORS
330
163
102
}
330
163
100
AcDbScale
 70
     0
300
1:8
140
1.0
141
8.0
290
     0
  0
SCALE
  5
169
102
{ACAD_REACTORS
330
163
102
}
330
163
100
AcDbScale
 70
     0
300
1:10
140
1.0
141
10.0
290
     0
  0
SCALE
  5
16A
102
{ACAD_REACTORS
330
163
102
}
330
163
100
AcDbScale
 70
     0
300
1:16
140
1.0
141
16.0
290
     0
  0
SCALE
  5
16B
102
{ACAD_REACTORS
330
163
102
}
330
163
100
AcDbScale
 70
     0
300
1:20
140
1.0
141
20.0
290
     0
  0
SCALE
  5
16C
102
{ACAD_REACTORS
330
163
102
}
330
163
100
AcDbScale
 70
     0
300
1:30
140
1.0
141
30.0
290
     0
  0
SCALE
  5
16D
102
{ACAD_REACTORS
330
163
102
}
330
163
100
AcDbScale
 70
     0
300
1:40
140
1.0
141
40.0
290
     0
  0
SCALE
  5
16E
102
{ACAD_REACTORS
330
163
102
}
330
163
100
AcDbScale
 70
     0
300
1:50
140
1.0
141
50.0
290
     0
  0
SCALE
  5
16F
102
{ACAD_REACTORS
330
163
102
}
330
163
100
AcDbScale
 70
     0
300
1:100
140
1.0
141
100.0
290
     0
  0
SCALE
  5
170
102
{ACAD_REACTORS
330
163
102
}
330
163
100
AcDbScale
 70
     0
300
2:1
140
2.0
141
1.0
290
     0
  0
SCALE
  5
171
102
{ACAD_REACTORS
330
163
102
}
330
163
100
AcDbScale
 70
     0
300
4:1
140
4.0
141
1.0
290
     0
  0
SCALE
  5
172
102
{ACAD_REACTORS
330
163
102
}
330
163
100
AcDbScale
 70
     0
300
8:1
140
8.0
141
1.0
290
     0
  0
SCALE
  5
173
102
{ACAD_REACTORS
330
163
102
}
330
163
100
AcDbScale
 70
     0
300
10:1
140
10.0
141
1.0
290
     0
  0
SCALE
  5
174
102
{ACAD_REACTORS
330
163
102
}
330
163
100
AcDbScale
 70
     0
300
100:1
140
100.0
141
1.0
290
     0
  0
SCALE
  5
175
102
{ACAD_REACTORS
330
163
102
}
330
163
100
AcDbScale
 70
     0
300
1/128" = 1'-0"
140
0.0078125
141
12.0
290
     0
  0
SCALE
  5
176
102
{ACAD_REACTORS
330
163
102
}
330
163
100
AcDbScale
 70
     0
300
1/64" = 1'-0"
140
0.015625
141
12.0
290
     0
  0
SCALE
  5
177
102
{ACAD_REACTORS
330
163
102
}
330
163
100
AcDbScale
 70
     0
300
1/32" = 1'-0"
140
0.03125
141
12.0
290
     0
  0
SCALE
  5
178
102
{ACAD_REACTORS
330
163
102
}
330
163
100
AcDbScale
 70
     0
300
1/16" = 1'-0"
140
0.0625
141
12.0
290
     0
  0
SCALE
  5
179
102
{ACAD_REACTORS
330
163
102
}
330
163
100
AcDbScale
 70
     0
300
3/32" = 1'-0"
140
0.09375
141
12.0
290
     0
  0
SCALE
  5
17A
102
{ACAD_REACTORS
330
163
102
}
330
163
100
AcDbScale
 70
     0
300
1/8" = 1'-0"
140
0.125
141
12.0
290
     0
  0
SCALE
  5
17B
102
{ACAD_REACTORS
330
163
102
}
330
163
100
AcDbScale
 70
     0
300
3/16" = 1'-0"
140
0.1875
141
12.0
290
     0
  0
SCALE
  5
17C
102
{ACAD_REACTORS
330
163
102
}
330
163
100
AcDbScale
 70
     0
300
1/4" = 1'-0"
140
0.25
141
12.0
290
     0
  0
SCALE
  5
17D
102
{ACAD_REACTORS
330
163
102
}
330
163
100
AcDbScale
 70
     0
300
3/8" = 1'-0"
140
0.375
141
12.0
290
     0
  0
SCALE
  5
17E
102
{ACAD_REACTORS
330
163
102
}
330
163
100
AcDbScale
 70
     0
300
1/2" = 1'-0"
140
0.5
141
12.0
290
     0
  0
SCALE
  5
17F
102
{ACAD_REACTORS
330
163
102
}
330
163
100
AcDbScale
 70
     0
300
3/4" = 1'-0"
140
0.75
141
12.0
290
     0
  0
SCALE
  5
180
102
{ACAD_REACTORS
330
163
102
}
330
163
100
AcDbScale
 70
     0
300
1" = 1'-0"
140
1.0
141
12.0
290
     0
  0
SCALE
  5
181
102
{ACAD_REACTORS
330
163
102
}
330
163
100
AcDbScale
 70
     0
300
1-1/2" = 1'-0"
140
1.5
141
12.0
290
     0
  0
SCALE
  5
182
102
{ACAD_REACTORS
330
163
102
}
330
163
100
AcDbScale
 70
     0
300
3" = 1'-0"
140
3.0
141
12.0
290
     0
  0
SCALE
  5
183
102
{ACAD_REACTORS
330
163
102
}
330
163
100
AcDbScale
 70
     0
300
6" = 1'-0"
140
6.0
141
12.0
290
     0
  0
SCALE
  5
184
102
{ACAD_REACTORS
330
163
102
}
330
163
100
AcDbScale
 70
     0
300
1'-0" = 1'-0"
140
12.0
141
12.0
290
     0
  0
VISUALSTYLE
  5
2F
102
{ACAD_REACTORS
330
2A
102
}
330
2A
100
AcDbVisualStyle
  2
2dWireframe
 70
     4
 71
     0
 72
     2
 73
     0
 90
        0
 40
-0.6
 41
-30.0
 62
     5
 63
     7
 74
     1
 91
        4
 64
     7
 65
   257
 75
     1
175
     1
 42
1.0
 92
        0
 66
   257
 43
1.0
 76
     1
 77
     6
 78
     2
 67
     7
 79
     5
170
     0
171
     0
290
     0
174
     0
 93
        1
 44
0.0
173
     0
291
     0
 45
0.0
1001
ACAD
1000
AcDbSavedByObjectVersion
1070
     0
  0
VISUALSTYLE
  5
31
102
{ACAD_REACTORS
330
2A
102
}
330
2A
100
AcDbVisualStyle
  2
3D Hidden
 70
     6
 71
     1
 72
     2
 73
     2
 90
        0
 40
-0.6
 41
-30.0
 62
     5
 63
     7
 74
     2
 91
        2
 64
     7
 65
   257
 75
     2
175
     1
 42
40.0
 92
        0
 66
   257
 43
1.0
 76
     1
 77
     6
 78
     2
 67
     7
 79
     3
170
     0
171
     0
290
     0
174
     0
 93
        1
 44
0.0
173
     0
291
     0
 45
0.0
1001
ACAD
1000
AcDbSavedByObjectVersion
1070
     0
  0
VISUALSTYLE
  5
30
102
{ACAD_REACTORS
330
2A
102
}
330
2A
100
AcDbVisualStyle
  2
3dWireframe
 70
     5
 71
     0
 72
     2
 73
     0
 90
        0
 40
-0.6
 41
-30.0
 62
     5
 63
     7
 74
     1
 91
        4
 64
     7
 65
   257
 75
     1
175
     1
 42
1.0
 92
        0
 66
   257
 43
1.0
 76
     1
 77
     6
 78
     2
 67
     7
 79
     5
170
     0
171
     0
290
     0
174
     0
 93
        1
 44
0.0
173
     0
291
     0
 45
0.0
1001
ACAD
1000
AcDbSavedByObjectVersion
1070
     0
  0
VISUALSTYLE
  5
32
102
{ACAD_REACTORS
330
2A
102
}
330
2A
100
AcDbVisualStyle
  2
Basic
 70
     7
 71
     1
 72
     0
 73
     1
 90
        0
 40
-0.6
 41
-30.0
 62
     5
 63
     7
 74
     0
 91
        4
 64
     7
 65
   257
 75
     1
175
     1
 42
1.0
 92
        8
 66
     7
 43
1.0
 76
     1
 77
     6
 78
     2
 67
     7
 79
     5
170
     0
171
     0
290
     0
174
     0
 93
        1
 44
0.0
173
     0
291
     1
 45
0.0
1001
ACAD
1000
AcDbSavedByObjectVersion
1070
     0
  0
VISUALSTYLE
  5
36
102
{ACAD_REACTORS
330
2A
102
}
330
2A
100
AcDbVisualStyle
  2
Brighten
 70
    12
 71
     2
 72
     2
 73
     0
 90
        0
 40
-0.6
 41
-30.0
 62
     5
 63
     7
 74
     1
 91
        4
 64
     7
 65
   257
 75
     1
175
     1
 42
1.0
 92
        8
 66
     7
 43
1.0
 76
     1
 77
     6
 78
     2
 67
     7
 79
     5
170
     0
171
     0
290
     0
174
     0
 93
        1
 44
50.0
173
     0
291
     1
 45
0.0
1001
ACAD
1000
AcDbSavedByObjectVersion
1070
     0
  0
VISUALSTYLE
  5
3A
102
{ACAD_REACTORS
330
2A
102
}
330
2A
100
AcDbVisualStyle
  2
ColorChange
 70
    16
 71
     2
 72
     2
 73
     3
 90
        0
 40
-0.6
 41
-30.0
 62
     5
 63
     8
 74
     1
 91
        4
 64
     7
 65
   257
 75
     1
175
     1
 42
1.0
 92
        8
 66
     8
 43
1.0
 76
     1
 77
     6
 78
     2
 67
     7
 79
     5
170
     0
171
     0
290
     0
174
     0
 93
        1
 44
0.0
173
     0
291
     1
 45
0.0
1001
ACAD
1000
AcDbSavedByObjectVersion
1070
     0
  0
VISUALSTYLE
  5
34
102
{ACAD_REACTORS
330
2A
102
}
330
2A
100
AcDbVisualStyle
  2
Conceptual
 70
     9
 71
     3
 72
     2
 73
     0
 90
        0
 40
-0.6
 41
-30.0
 62
     5
 63
     7
 74
     2
 91
        2
 64
     7
 65
   257
 75
     1
175
     1
 42
40.0
 92
        8
 66
     7
 43
1.0
 76
     1
 77
     6
 78
     2
 67
     7
 79
     3
170
     0
171
     0
290
     0
174
     0
 93
        1
 44
0.0
173
     0
291
     0
 45
0.0
1001
ACAD
1000
AcDbSavedByObjectVersion
1070
     0
  0
VISUALSTYLE
  5
35
102
{ACAD_REACTORS
330
2A
102
}
330
2A
100
AcDbVisualStyle
  2
Dim
 70
    11
 71
     2
 72
     2
 73
     0
 90
        0
 40
-0.6
 41
-30.0
 62
     5
 63
     7
 74
     1
 91
        4
 64
     7
 65
   257
 75
     1
175
     1
 42
1.0
 92
        8
 66
     7
 43
1.0
 76
     1
 77
     6
 78
     2
 67
     7
 79
     5
170
     0
171
     0
290
     0
174
     0
 93
        1
 44
-50.0
173
     0
291
     1
 45
0.0
1001
ACAD
1000
AcDbSavedByObjectVersion
1070
     0
  0
VISUALSTYLE
  5
39
102
{ACAD_REACTORS
330
2A
102
}
330
2A
100
AcDbVisualStyle
  2
Facepattern
 70
    15
 71
     2
 72
     2
 73
     0
 90
        0
 40
-0.6
 41
-30.0
 62
     5
 63
     7
 74
     1
 91
        4
 64
     7
 65
   257
 75
     1
175
     1
 42
1.0
 92
        8
 66
     7
 43
1.0
 76
     1
 77
     6
 78
     2
 67
     7
 79
     5
170
     0
171
     0
290
     0
174
     0
 93
        1
 44
0.0
173
     0
291
     1
 45
0.0
1001
ACAD
1000
AcDbSavedByObjectVersion
1070
     0
  0
VISUALSTYLE
  5
2B
102
{ACAD_REACTORS
330
2A
102
}
330
2A
100
AcDbVisualStyle
  2
Flat
 70
     0
 71
     2
 72
     1
 73
     1
 90
        2
 40
-0.6
 41
30.0
 62
     5
 63
     7
 74
     0
 91
        4
 64
     7
 65
   257
 75
     1
175
     1
 42
1.0
 92
        8
 66
     7
 43
1.0
 76
     1
 77
     6
 78
     2
 67
     7
 79
     5
170
     0
171
     0
290
     0
174
     0
 93
       13
 44
0.0
173
     0
291
     1
 45
0.0
1001
ACAD
1000
AcDbSavedByObjectVersion
1070
     0
  0
VISUALSTYLE
  5
2C
102
{ACAD_REACTORS
330
2A
102
}
330
2A
100
AcDbVisualStyle
  2
FlatWithEdges
 70
     1
 71
     2
 72
     1
 73
     1
 90
        2
 40
-0.6
 41
30.0
 62
     5
 63
     7
 74
     1
 91
        4
 64
     7
 65
   257
 75
     1
175
     1
 42
1.0
 92
        0
 66
   257
 43
1.0
 76
     1
 77
     6
 78
     2
 67
     7
 79
     5
170
     0
171
     0
290
     0
174
     0
 93
       13
 44
0.0
173
     0
291
     1
 45
0.0
1001
ACAD
1000
AcDbSavedByObjectVersion
1070
     0
  0
VISUALSTYLE
  5
2D
102
{ACAD_REACTORS
330
2A
102
}
330
2A
100
AcDbVisualStyle
  2
Gouraud
 70
     2
 71
     2
 72
     2
 73
     1
 90
        2
 40
-0.6
 41
30.0
 62
     5
 63
     7
 74
     0
 91
        4
 64
     7
 65
   257
 75
     1
175
     1
 42
1.0
 92
        0
 66
     7
 43
1.0
 76
     1
 77
     6
 78
     2
 67
     7
 79
     5
170
     0
171
     0
290
     0
174
     0
 93
       13
 44
0.0
173
     0
291
     1
 45
0.0
1001
ACAD
1000
AcDbSavedByObjectVersion
1070
     0
  0
VISUALSTYLE
  5
2E
102
{ACAD_REACTORS
330
2A
102
}
330
2A
100
AcDbVisualStyle
  2
GouraudWithEdges
 70
     3
 71
     2
 72
     2
 73
     1
 90
        2
 40
-0.6
 41
30.0
 62
     5
 63
     7
 74
     1
 91
        4
 64
     7
 65
   257
 75
     1
175
     1
 42
1.0
 92
        0
 66
   257
 43
1.0
 76
     1
 77
     6
 78
     2
 67
     7
 79
     5
170
     0
171
     0
290
     0
174
     0
 93
       13
 44
0.0
173
     0
291
     1
 45
0.0
1001
ACAD
1000
AcDbSavedByObjectVersion
1070
     0
  0
VISUALSTYLE
  5
38
102
{ACAD_REACTORS
330
2A
102
}
330
2A
100
AcDbVisualStyle
  2
Linepattern
 70
    14
 71
     2
 72
     2
 73
     0
 90
        0
 40
-0.6
 41
-30.0
 62
     5
 63
     7
 74
     1
 91
        4
 64
     7
 65
   257
 75
     7
175
     7
 42
1.0
 92
        8
 66
     7
 43
1.0
 76
     1
 77
     6
 78
     2
 67
     7
 79
     5
170
     0
171
     0
290
     0
174
     0
 93
        1
 44
0.0
173
     0
291
     1
 45
0.0
1001
ACAD
1000
AcDbSavedByObjectVersion
1070
     0
  0
VISUALSTYLE
  5
33
102
{ACAD_REACTORS
330
2A
102
}
330
2A
100
AcDbVisualStyle
  2
Realistic
 70
     8
 71
     2
 72
     2
 73
     0
 90
        0
 40
-0.6
 41
-30.0
 62
     5
 63
     7
 74
     1
 91
        0
 64
     7
 65
   257
 75
     1
175
     1
 42
1.0
 92
        8
 66
     8
 43
1.0
 76
     1
 77
     6
 78
     2
 67
     7
 79
     5
170
     0
171
     0
290
     0
174
     0
 93
       13
 44
0.0
173
     0
291
     0
 45
0.0
1001
ACAD
1000
AcDbSavedByObjectVersion
1070
     0
  0
VISUALSTYLE
  5
37
102
{ACAD_REACTORS
330
2A
102
}
330
2A
100
AcDbVisualStyle
  2
Thicken
 70
    13
 71
     2
 72
     2
 73
     0
 90
        0
 40
-0.6
 41
-30.0
 62
     5
 63
     7
 74
     1
 91
        4
 64
     7
 65
   257
 75
     1
175
     1
 42
1.0
 92
       12
 66
     7
 43
1.0
 76
     1
 77
     6
 78
     2
 67
     7
 79
     5
170
     0
171
     0
290
     0
174
     0
 93
        1
 44
0.0
173
     0
291
     1
 45
0.0
1001
ACAD
1000
AcDbSavedByObjectVersion
1070
     0
  0
DICTIONARYVAR
  5
18A
102
{ACAD_REACTORS
330
185
102
}
330
185
100
DictionaryVariables
280
     0
  1
1:1
  0
DICTIONARYVAR
  5
18B
102
{ACAD_REACTORS
330
185
102
}
330
185
100
DictionaryVariables
280
     0
  1
2
  0
DICTIONARYVAR
  5
18C
102
{ACAD_REACTORS
330
185
102
}
330
185
100
DictionaryVariables
280
     0
  1
1
  0
DICTIONARYVAR
  5
189
102
{ACAD_REACTORS
330
185
102
}
330
185
100
DictionaryVariables
280
     0
  1
80.000000
  0
DICTIONARYVAR
  5
188
102
{ACAD_REACTORS
330
185
102
}
330
185
100
DictionaryVariables
280
     0
  1
5.000000
  0
ENDSEC
  0
EOF
