  0
SECTION
  2
HEADER
  9
$ACADVER
  1
AC1015
  9
$ACADMAINTVER
 70
     6
  9
$DWGCODEPAGE
  3
ANSI_1252
  9
$INSBASE
 10
0.0
 20
0.0
 30
0.0
  9
$EXTMIN
 10
-22.225
 20
-22.225
 30
0.0
  9
$EXTMAX
 10
22.225
 20
22.225
 30
0.0
  9
$LIMMIN
 10
0.0
 20
0.0
  9
$LIMMAX
 10
420.0
 20
297.0
  9
$ORTHOMODE
 70
     0
  9
$REGENMODE
 70
     1
  9
$FILLMODE
 70
     1
  9
$QTEXTMODE
 70
     0
  9
$MIRRTEXT
 70
     1
  9
$LTSCALE
 40
1.0
  9
$ATTMODE
 70
     1
  9
$TEXTSIZE
 40
3.5
  9
$TRACEWID
 40
1.0
  9
$TEXTSTYLE
  7
Standard
  9
$CLAYER
  8
0
  9
$CELTYPE
  6
ByLayer
  9
$CECOLOR
 62
   256
  9
$CELTSCALE
 40
1.0
  9
$DISPSILH
 70
     0
  9
$DIMSCALE
 40
1.0
  9
$DIMASZ
 40
3.302
  9
$DIMEXO
 40
1.0
  9
$DIMDLI
 40
3.75
  9
$DIMRND
 40
0.0
  9
$DIMDLE
 40
0.0
  9
$DIMEXE
 40
1.0
  9
$DIMTP
 40
0.0
  9
$DIMTM
 40
0.0
  9
$DIMTXT
 40
3.5
  9
$DIMCEN
 40
2.5
  9
$DIMTSZ
 40
0.0
  9
$DIMTOL
 70
     0
  9
$DIMLIM
 70
     0
  9
$DIMTIH
 70
     1
  9
$DIMTOH
 70
     1
  9
$DIMSE1
 70
     0
  9
$DIMSE2
 70
     0
  9
$DIMTAD
 70
     1
  9
$DIMZIN
 70
     0
  9
$DIMBLK
  1

  9
$DIMASO
 70
     1
  9
$DIMSHO
 70
     1
  9
$DIMPOST
  1

  9
$DIMAPOST
  1

  9
$DIMALT
 70
     0
  9
$DIMALTD
 70
     3
  9
$DIMALTF
 40
0.0393700787
  9
$DIMLFAC
 40
1.0
  9
$DIMTOFL
 70
     1
  9
$DIMTVP
 40
0.0
  9
$DIMTIX
 70
     0
  9
$DIMSOXD
 70
     0
  9
$DIMSAH
 70
     0
  9
$DIMBLK1
  1

  9
$DIMBLK2
  1

  9
$DIMSTYLE
  2
ISO-25
  9
$DIMCLRD
 70
     0
  9
$DIMCLRE
 70
     0
  9
$DIMCLRT
 70
     0
  9
$DIMTFAC
 40
1.0
  9
$DIMGAP
 40
1.524
  9
$DIMJUST
 70
     0
  9
$DIMSD1
 70
     0
  9
$DIMSD2
 70
     0
  9
$DIMTOLJ
 70
     0
  9
$DIMTZIN
 70
     0
  9
$DIMALTZ
 70
     0
  9
$DIMALTTZ
 70
     0
  9
$DIMUPT
 70
     0
  9
$DIMDEC
 70
     3
  9
$DIMTDEC
 70
     3
  9
$DIMALTU
 70
     2
  9
$DIMALTTD
 70
     3
  9
$DIMTXSTY
  7
Standard
  9
$DIMAUNIT
 70
     0
  9
$DIMADEC
 70
     2
  9
$DIMALTRND
 40
0.0
  9
$DIMAZIN
 70
     0
  9
$DIMDSEP
 70
    44
  9
$DIMATFIT
 70
     3
  9
$DIMFRAC
 70
     0
  9
$DIMLDRBLK
  1

  9
$DIMLUNIT
 70
     2
  9
$DIMLWD
 70
    -2
  9
$DIMLWE
 70
    -2
  9
$DIMTMOVE
 70
     0
  9
$LUNITS
 70
     2
  9
$LUPREC
 70
     2
  9
$SKETCHINC
 40
1.0
  9
$FILLETRAD
 40
10.0
  9
$AUNITS
 70
     0
  9
$AUPREC
 70
     2
  9
$MENU
  1
.
  9
$ELEVATION
 40
0.0
  9
$PELEVATION
 40
0.0
  9
$THICKNESS
 40
0.0
  9
$LIMCHECK
 70
     0
  9
$CHAMFERA
 40
10.0
  9
$CHAMFERB
 40
10.0
  9
$CHAMFERC
 40
20.0
  9
$CHAMFERD
 40
0.0
  9
$SKPOLY
 70
     0
  9
$TDCREATE
 40
2457184.494617002
  9
$TDUCREATE
 40
2457184.077950336
  9
$TDUPDATE
 40
2457184.494617014
  9
$TDUUPDATE
 40
2457184.077950347
  9
$TDINDWG
 40
0.0000000116
  9
$TDUSRTIMER
 40
0.0000000116
  9
$USRTIMER
 70
     1
  9
$ANGBASE
 50
0.0
  9
$ANGDIR
 70
     0
  9
$PDMODE
 70
     0
  9
$PDSIZE
 40
-1.0
  9
$PLINEWID
 40
0.0
  9
$SPLFRAME
 70
     0
  9
$SPLINETYPE
 70
     6
  9
$SPLINESEGS
 70
     8
  9
$HANDSEED
  5
253
  9
$SURFTAB1
 70
     6
  9
$SURFTAB2
 70
     6
  9
$SURFTYPE
 70
     6
  9
$SURFU
 70
     6
  9
$SURFV
 70
     6
  9
$UCSBASE
  2

  9
$UCSNAME
  2

  9
$UCSORG
 10
0.0
 20
0.0
 30
0.0
  9
$UCSXDIR
 10
1.0
 20
0.0
 30
0.0
  9
$UCSYDIR
 10
0.0
 20
1.0
 30
0.0
  9
$UCSORTHOREF
  2

  9
$UCSORTHOVIEW
 70
     0
  9
$UCSORGTOP
 10
0.0
 20
0.0
 30
0.0
  9
$UCSORGBOTTOM
 10
0.0
 20
0.0
 30
0.0
  9
$UCSORGLEFT
 10
0.0
 20
0.0
 30
0.0
  9
$UCSORGRIGHT
 10
0.0
 20
0.0
 30
0.0
  9
$UCSORGFRONT
 10
0.0
 20
0.0
 30
0.0
  9
$UCSORGBACK
 10
0.0
 20
0.0
 30
0.0
  9
$PUCSBASE
  2

  9
$PUCSNAME
  2

  9
$PUCSORG
 10
0.0
 20
0.0
 30
0.0
  9
$PUCSXDIR
 10
1.0
 20
0.0
 30
0.0
  9
$PUCSYDIR
 10
0.0
 20
1.0
 30
0.0
  9
$PUCSORTHOREF
  2

  9
$PUCSORTHOVIEW
 70
     0
  9
$PUCSORGTOP
 10
0.0
 20
0.0
 30
0.0
  9
$PUCSORGBOTTOM
 10
0.0
 20
0.0
 30
0.0
  9
$PUCSORGLEFT
 10
0.0
 20
0.0
 30
0.0
  9
$PUCSORGRIGHT
 10
0.0
 20
0.0
 30
0.0
  9
$PUCSORGFRONT
 10
0.0
 20
0.0
 30
0.0
  9
$PUCSORGBACK
 10
0.0
 20
0.0
 30
0.0
  9
$USERI1
 70
     0
  9
$USERI2
 70
     0
  9
$USERI3
 70
     0
  9
$USERI4
 70
     0
  9
$USERI5
 70
     0
  9
$USERR1
 40
0.0
  9
$USERR2
 40
0.0
  9
$USERR3
 40
0.0
  9
$USERR4
 40
0.0
  9
$USERR5
 40
0.0
  9
$WORLDVIEW
 70
     1
  9
$SHADEDGE
 70
     3
  9
$SHADEDIF
 70
    70
  9
$TILEMODE
 70
     1
  9
$MAXACTVP
 70
    64
  9
$PINSBASE
 10
0.0
 20
0.0
 30
0.0
  9
$PLIMCHECK
 70
     0
  9
$PEXTMIN
 10
1.0000000000E+20
 20
1.0000000000E+20
 30
1.0000000000E+20
  9
$PEXTMAX
 10
-1.0000000000E+20
 20
-1.0000000000E+20
 30
-1.0000000000E+20
  9
$PLIMMIN
 10
0.0
 20
0.0
  9
$PLIMMAX
 10
420.0
 20
297.0
  9
$UNITMODE
 70
     0
  9
$VISRETAIN
 70
     1
  9
$PLINEGEN
 70
     0
  9
$PSLTSCALE
 70
     1
  9
$TREEDEPTH
 70
  3020
  9
$CMLSTYLE
  2
Standard
  9
$CMLJUST
 70
     0
  9
$CMLSCALE
 40
20.0
  9
$PROXYGRAPHICS
 70
     1
  9
$MEASUREMENT
 70
     1
  9
$CELWEIGHT
370
    -1
  9
$ENDCAPS
280
     0
  9
$JOINSTYLE
280
     0
  9
$LWDISPLAY
290
     1
  9
$INSUNITS
 70
     4
  9
$HYPERLINKBASE
  1

  9
$STYLESHEET
  1

  9
$XEDIT
290
     1
  9
$CEPSNTYPE
380
     0
  9
$PSTYLEMODE
290
     1
  9
$FINGERPRINTGUID
  2
{234B4362-9ED6-4419-8313-2DD7C50444CC}
  9
$VERSIONGUID
  2
{FAEB1C32-E019-11D5-929B-00C0DF256EC4}
  9
$EXTNAMES
290
     1
  9
$PSVPSCALE
 40
0.0
  9
$OLESTARTUP
290
     0
  0
ENDSEC
  0
SECTION
  2
CLASSES
  0
CLASS
  1
ACDBDICTIONARYWDFLT
  2
AcDbDictionaryWithDefault
  3
ObjectDBX Classes
 90
        0
280
     0
281
     0
  0
CLASS
  1
VISUALSTYLE
  2
AcDbVisualStyle
  3
ObjectDBX Classes
 90
     4095
280
     0
281
     0
  0
CLASS
  1
SCALE
  2
AcDbScale
  3
ObjectDBX Classes
 90
     1153
280
     0
281
     0
  0
CLASS
  1
DICTIONARYVAR
  2
AcDbDictionaryVar
  3
ObjectDBX Classes
 90
        0
280
     0
281
     0
  0
CLASS
  1
ACDBPLACEHOLDER
  2
AcDbPlaceHolder
  3
ObjectDBX Classes
 90
        0
280
     0
281
     0
  0
CLASS
  1
LAYOUT
  2
AcDbLayout
  3
ObjectDBX Classes
 90
        0
280
     0
281
     0
  0
ENDSEC
  0
SECTION
  2
TABLES
  0
TABLE
  2
VPORT
  5
8
330
0
100
AcDbSymbolTable
 70
     1
  0
VPORT
  5
29
330
8
100
AcDbSymbolTableRecord
100
AcDbViewportTableRecord
  2
*Active
 70
     0
 10
0.0
 20
0.0
 11
1.0
 21
1.0
 12
0.0
 22
0.0
 13
0.0
 23
0.0
 14
10.0
 24
10.0
 15
10.0
 25
10.0
 16
0.0
 26
0.0
 36
1.0
 17
0.0
 27
0.0
 37
0.0
 40
45.339
 41
1.0
 42
50.0
 43
0.0
 44
0.0
 50
0.0
 51
0.0
 71
     0
 72
   100
 73
     1
 74
     3
 75
     0
 76
     0
 77
     0
 78
     0
281
     0
 65
     1
110
0.0
120
0.0
130
0.0
111
1.0
121
0.0
131
0.0
112
0.0
122
1.0
132
0.0
 79
     0
146
0.0
  0
ENDTAB
  0
TABLE
  2
LTYPE
  5
5
330
0
100
AcDbSymbolTable
 70
     6
  0
LTYPE
  5
14
330
5
100
AcDbSymbolTableRecord
100
AcDbLinetypeTableRecord
  2
ByBlock
 70
     0
  3

 72
    65
 73
     0
 40
0.0
  0
LTYPE
  5
15
330
5
100
AcDbSymbolTableRecord
100
AcDbLinetypeTableRecord
  2
ByLayer
 70
     0
  3

 72
    65
 73
     0
 40
0.0
  0
LTYPE
  5
16
330
5
100
AcDbSymbolTableRecord
100
AcDbLinetypeTableRecord
  2
Continuous
 70
     0
  3
Solid line
 72
    65
 73
     0
 40
0.0
  0
LTYPE
  5
3B
330
5
100
AcDbSymbolTableRecord
100
AcDbLinetypeTableRecord
  2
HIDDEN
 70
     0
  3
Hidden __ __ __ __ __ __ __ __ __ __ __ __ __ __
 72
    65
 73
     2
 40
1.905
 49
1.27
 74
     0
 49
-0.635
 74
     0
  0
LTYPE
  5
3C
330
5
100
AcDbSymbolTableRecord
100
AcDbLinetypeTableRecord
  2
PHANTOM
 70
     0
  3
Phantom ______  __  __  ______  __  __  ______
 72
    65
 73
     6
 40
12.7
 49
6.35
 74
     0
 49
-1.27
 74
     0
 49
1.27
 74
     0
 49
-1.27
 74
     0
 49
1.27
 74
     0
 49
-1.27
 74
     0
  0
LTYPE
  5
3D
330
5
100
AcDbSymbolTableRecord
100
AcDbLinetypeTableRecord
  2
CENTER
 70
     0
  3
Center ____ _ ____ _ ____ _ ____ _ ____ _ ____
 72
    65
 73
     4
 40
10.16
 49
6.35
 74
     0
 49
-1.27
 74
     0
 49
1.27
 74
     0
 49
-1.27
 74
     0
  0
LTYPE
  5
3E
330
5
100
AcDbSymbolTableRecord
100
AcDbLinetypeTableRecord
  2
CENTERX2
 70
     0
  3
Center (2x) ________  __  ________  __  _____
 72
    65
 73
     4
 40
20.32
 49
12.7
 74
     0
 49
-2.54
 74
     0
 49
2.54
 74
     0
 49
-2.54
 74
     0
  0
LTYPE
  5
3F
330
5
100
AcDbSymbolTableRecord
100
AcDbLinetypeTableRecord
  2
DOT2
 70
     0
  3
Dot (.5x) ........................................
 72
    65
 73
     2
 40
0.635
 49
0.0
 74
     0
 49
-0.635
 74
     0
  0
ENDTAB
  0
TABLE
  2
LAYER
  5
2
330
0
100
AcDbSymbolTable
 70
     1
  0
LAYER
  5
10
330
2
100
AcDbSymbolTableRecord
100
AcDbLayerTableRecord
  2
0
 70
     0
 62
     7
  6
Continuous
370
    -3
390
F
  0
ENDTAB
  0
TABLE
  2
STYLE
  5
3
330
0
100
AcDbSymbolTable
 70
     1
  0
STYLE
  5
11
330
3
100
AcDbSymbolTableRecord
100
AcDbTextStyleTableRecord
  2
Standard
 70
     0
 40
0.0
 41
1.0
 50
0.0
 71
     0
 42
2.5
  3
txt
  4

  0
ENDTAB
  0
TABLE
  2
VIEW
  5
6
330
0
100
AcDbSymbolTable
 70
     0
  0
ENDTAB
  0
TABLE
  2
UCS
  5
7
330
0
100
AcDbSymbolTable
 70
     0
  0
ENDTAB
  0
TABLE
  2
APPID
  5
9
330
0
100
AcDbSymbolTable
 70
     1
  0
APPID
  5
12
330
9
100
AcDbSymbolTableRecord
100
AcDbRegAppTableRecord
  2
ACAD
 70
     0
  0
ENDTAB
  0
TABLE
  2
DIMSTYLE
  5
A
330
0
100
AcDbSymbolTable
 70
     1
100
AcDbDimStyleTable
  0
DIMSTYLE
105
27
330
A
100
AcDbSymbolTableRecord
100
AcDbDimStyleTableRecord
  2
ISO-25
 70
     0
 41
2.5
 42
0.625
 43
3.75
 44
1.25
 73
     0
 74
     0
 77
     1
 78
     8
140
2.5
141
2.5
143
0.0393700787
147
0.625
171
     3
172
     1
271
     2
272
     2
274
     3
278
    44
283
     0
284
     8
340
11
  0
ENDTAB
  0
TABLE
  2
BLOCK_RECORD
  5
1
330
0
100
AcDbSymbolTable
 70
     1
  0
BLOCK_RECORD
  5
1F
330
1
100
AcDbSymbolTableRecord
100
AcDbBlockTableRecord
  2
*Model_Space
340
22
  0
BLOCK_RECORD
  5
1B
330
1
100
AcDbSymbolTableRecord
100
AcDbBlockTableRecord
  2
*Paper_Space
340
1E
  0
BLOCK_RECORD
  5
23
330
1
100
AcDbSymbolTableRecord
100
AcDbBlockTableRecord
  2
*Paper_Space0
340
26
  0
ENDTAB
  0
ENDSEC
  0
SECTION
  2
BLOCKS
  0
BLOCK
  5
20
330
1F
100
AcDbEntity
  8
0
100
AcDbBlockBegin
  2
*Model_Space
 70
     0
 10
0.0
 20
0.0
 30
0.0
  3
*Model_Space
  1

  0
ENDBLK
  5
21
330
1F
100
AcDbEntity
  8
0
100
AcDbBlockEnd
  0
BLOCK
  5
1C
330
1B
100
AcDbEntity
 67
     1
  8
0
100
AcDbBlockBegin
  2
*Paper_Space
 70
     0
 10
0.0
 20
0.0
 30
0.0
  3
*Paper_Space
  1

  0
ENDBLK
  5
1D
330
1B
100
AcDbEntity
 67
     1
  8
0
100
AcDbBlockEnd
  0
BLOCK
  5
24
330
23
100
AcDbEntity
  8
0
100
AcDbBlockBegin
  2
*Paper_Space0
 70
     0
 10
0.0
 20
0.0
 30
0.0
  3
*Paper_Space0
  1

  0
ENDBLK
  5
25
330
23
100
AcDbEntity
  8
0
100
AcDbBlockEnd
  0
ENDSEC
  0
SECTION
  2
ENTITIES
  0
SPLINE
  5
42
330
1F
100
AcDbEntity
  8
0
  6
Continuous
 62
     7
370
    15
100
AcDbSpline
210
0.0
220
0.0
230
1.0
 70
    24
 71
     3
 72
     8
 73
     4
 74
     0
 42
0.00000001
 43
0.00000001
 40
0.0
 40
0.0
 40
0.0
 40
0.0
 40
1.0
 40
1.0
 40
1.0
 40
1.0
 10
21.09999999999688
 20
0.2165063509443036
 30
0.0
 10
21.29069632728807
 20
0.3266049268393464
 30
0.0
 10
21.47960914236413
 20
0.4356737914768758
 30
0.0
 10
21.66739387604386
 20
0.544091358016572
 30
0.0
  0
SPLINE
  5
43
330
1F
100
AcDbEntity
  8
0
  6
Continuous
 62
     7
370
    15
100
AcDbSpline
210
0.0
220
0.0
230
1.0
 70
     8
 71
     3
 72
    14
 73
    10
 74
     0
 42
0.00000001
 43
0.00000001
 40
0.0
 40
0.0
 40
0.0
 40
0.0
 40
0.25
 40
0.25
 40
0.5
 40
0.5
 40
0.75
 40
0.75
 40
1.0
 40
1.0
 40
1.0
 40
1.0
 10
21.10000000000001
 20
-0.216506350946107
 30
0.0
 10
21.06864556645336
 20
-0.1984038602976544
 30
0.0
 10
21.0393673480314
 20
-0.1728924743729185
 30
0.0
 10
20.99224833707223
 20
-0.1008858393236779
 30
0.0
 10
20.97506402104114
 20
-0.0517848376503026
 30
0.0
 10
20.97493636335895
 20
0.0511648377154475
 30
0.0
 10
20.99204405367659
 20
0.100495038731615
 30
0.0
 10
21.03929991553049
 20
0.1728675920036124
 30
0.0
 10
21.06861408491579
 20
0.1983856844256601
 30
0.0
 10
21.09999999999628
 20
0.2165063509466414
 30
0.0
  0
SPLINE
  5
44
330
1F
100
AcDbEntity
  8
0
  6
Continuous
 62
     7
370
    15
100
AcDbSpline
210
0.0
220
0.0
230
1.0
 70
    24
 71
     3
 72
     8
 73
     4
 74
     0
 42
0.00000001
 43
0.00000001
 40
0.0
 40
0.0
 40
0.0
 40
0.0
 40
1.0
 40
1.0
 40
1.0
 40
1.0
 10
21.66739387604386
 20
-0.5440913580165649
 30
0.0
 10
21.47960914236516
 20
-0.4356737914774633
 30
0.0
 10
21.29069632729014
 20
-0.3266049268405348
 30
0.0
 10
21.10000000000001
 20
-0.2165063509461068
 30
0.0
  0
SPLINE
  5
4E
330
1F
100
AcDbEntity
  8
0
  6
Continuous
 62
     7
370
    15
100
AcDbSpline
210
0.0
220
0.0
230
1.0
 70
     8
 71
     3
 72
     8
 73
     4
 74
     0
 42
0.00000001
 43
0.00000001
 40
40.0
 40
40.0
 40
40.0
 40
40.0
 40
41.0
 40
41.0
 40
41.0
 40
41.0
 10
-6.552512277320305
 20
-19.50243141744736
 30
0.0
 10
-6.556205515444397
 20
-19.50835729574423
 30
0.0
 10
-6.559140190318295
 20
-19.51475588809472
 30
0.0
 10
-6.562426090368334
 20
-19.52093566983248
 30
0.0
  0
SPLINE
  5
4F
330
1F
100
AcDbEntity
  8
0
  6
Continuous
 62
     7
370
    15
100
AcDbSpline
210
0.0
220
0.0
230
1.0
 70
     8
 71
     3
 72
     8
 73
     4
 74
     0
 42
0.00000001
 43
0.00000001
 40
39.0
 40
39.0
 40
39.0
 40
39.0
 40
40.0
 40
40.0
 40
40.0
 40
40.0
 10
-6.477607793311136
 20
-19.38144714039148
 30
0.0
 10
-6.498333047638339
 20
-19.42384705552787
 30
0.0
 10
-6.52739851934286
 20
-19.4621623079652
 30
0.0
 10
-6.552512277320305
 20
-19.50243141744736
 30
0.0
  0
SPLINE
  5
50
330
1F
100
AcDbEntity
  8
0
  6
Continuous
 62
     7
370
    15
100
AcDbSpline
210
0.0
220
0.0
230
1.0
 70
     8
 71
     3
 72
     8
 73
     4
 74
     0
 42
0.00000001
 43
0.00000001
 40
38.0
 40
38.0
 40
38.0
 40
38.0
 40
39.0
 40
39.0
 40
39.0
 40
39.0
 10
-6.42430175751373
 20
-18.967754978323
 30
0.0
 10
-6.404665212164402
 20
-19.11031071595879
 30
0.0
 10
-6.413380376519664
 20
-19.25006760756099
 30
0.0
 10
-6.477607793311136
 20
-19.38144714039148
 30
0.0
  0
SPLINE
  5
51
330
1F
100
AcDbEntity
  8
0
  6
Continuous
 62
     7
370
    15
100
AcDbSpline
210
0.0
220
0.0
230
1.0
 70
     8
 71
     3
 72
     8
 73
     4
 74
     0
 42
0.00000001
 43
0.00000001
 40
37.0
 40
37.0
 40
37.0
 40
37.0
 40
38.0
 40
38.0
 40
38.0
 40
38.0
 10
-6.610958373328206
 20
-18.4306200520339
 30
0.0
 10
-6.522600614207743
 20
-18.6004676039242
 30
0.0
 10
-6.450665927590082
 20
-18.77636167684198
 30
0.0
 10
-6.42430175751373
 20
-18.967754978323
 30
0.0
  0
SPLINE
  5
52
330
1F
100
AcDbEntity
  8
0
  6
Continuous
 62
     7
370
    15
100
AcDbSpline
210
0.0
220
0.0
230
1.0
 70
     8
 71
     3
 72
    38
 73
    34
 74
     0
 42
0.00000001
 43
0.00000001
 40
26.0
 40
26.0
 40
26.0
 40
26.0
 40
27.0
 40
27.0
 40
27.0
 40
28.0
 40
28.0
 40
28.0
 40
29.0
 40
29.0
 40
29.0
 40
30.0
 40
30.0
 40
30.0
 40
31.0
 40
31.0
 40
31.0
 40
32.0
 40
32.0
 40
32.0
 40
33.0
 40
33.0
 40
33.0
 40
34.0
 40
34.0
 40
34.0
 40
35.0
 40
35.0
 40
35.0
 40
36.0
 40
36.0
 40
36.0
 40
37.0
 40
37.0
 40
37.0
 40
37.0
 10
-14.55568524696186
 20
-12.21385946914709
 30
0.0
 10
-14.50181021450343
 20
-12.242311855485
 30
0.0
 10
-14.447742201179
 20
-12.2704040504589
 30
0.0
 10
-14.39409007646546
 20
-12.29927030653099
 30
0.0
 10
-13.71220364655789
 20
-12.66614617150006
 30
0.0
 10
-13.04100045925576
 20
-13.05166202862646
 30
0.0
 10
-12.38650021124614
 20
-13.46543355036496
 30
0.0
 10
-11.98588425452143
 20
-13.71870089666595
 30
0.0
 10
-11.58838324648885
 20
-13.97711631930574
 30
0.0
 10
-11.19435378609939
 20
-14.2405053338921
 30
0.0
 10
-10.90758041898853
 20
-14.43219910658148
 30
0.0
 10
-10.62684144479998
 20
-14.63313087332613
 30
0.0
 10
-10.34700076685329
 20
-14.83492103380743
 30
0.0
 10
-10.10869781006776
 20
-15.00675882705813
 30
0.0
 10
-9.873907891811537
 20
-15.18359365200828
 30
0.0
 10
-9.640566220731174
 20
-15.3621427408358
 30
0.0
 10
-9.44349627574174
 20
-15.51293713595702
 30
0.0
 10
-9.248818632902317
 20
-15.66701878941665
 30
0.0
 10
-9.056624327225308
 20
-15.82398090497151
 30
0.0
 10
-8.878569948558964
 20
-15.9693952347748
 30
0.0
 10
-8.703906741005017
 20
-16.11905388925441
 30
0.0
 10
-8.53020296751578
 20
-16.26967197779868
 30
0.0
 10
-8.397326754878764
 20
-16.38488864127925
 30
0.0
 10
-8.265350829526575
 20
-16.50145212007917
 30
0.0
 10
-8.138197768786696
 20
-16.62288786659312
 30
0.0
 10
-7.938045483304729
 20
-16.81404044856641
 30
0.0
 10
-7.739152544564642
 20
-17.0067240943409
 30
0.0
 10
-7.545585543720759
 20
-17.20449616309955
 30
0.0
 10
-7.368093758090759
 20
-17.38584380663377
 30
0.0
 10
-7.20188815038149
 20
-17.57779928550006
 30
0.0
 10
-7.044991171435647
 20
-17.77760600162971
 30
0.0
 10
-6.883023577557245
 20
-17.98387012659554
 30
0.0
 10
-6.732244776774479
 20
-18.19747340296334
 30
0.0
 10
-6.610958373328206
 20
-18.4306200520339
 30
0.0
  0
SPLINE
  5
53
330
1F
100
AcDbEntity
  8
0
  6
Continuous
 62
     7
370
    15
100
AcDbSpline
210
0.0
220
0.0
230
1.0
 70
     8
 71
     3
 72
    17
 73
    13
 74
     0
 42
0.00000001
 43
0.00000001
 40
22.0
 40
22.0
 40
22.0
 40
22.0
 40
23.0
 40
23.0
 40
23.0
 40
24.0
 40
24.0
 40
24.0
 40
25.0
 40
25.0
 40
25.0
 40
26.0
 40
26.0
 40
26.0
 40
26.0
 10
-10.69861803555436
 20
-14.88834688103322
 30
0.0
 10
-11.01593032781564
 20
-14.64772144405947
 30
0.0
 10
-11.33506302343059
 20
-14.40926413227051
 30
0.0
 10
-11.65881520594769
 20
-14.17741953252516
 30
0.0
 10
-12.07101431959002
 20
-13.88223653430396
 30
0.0
 10
-12.48522643149025
 20
-13.58959856774355
 30
0.0
 10
-12.90482686606274
 20
-13.30508984593988
 30
0.0
 10
-13.37059117396083
 20
-12.98927998394377
 30
0.0
 10
-13.8433057619712
 20
-12.6837152089192
 30
0.0
 10
-14.31324576015834
 20
-12.37407141217471
 30
0.0
 10
-14.39406062461638
 20
-12.32082240964558
 30
0.0
 10
-14.47613045849068
 20
-12.26947726727228
 30
0.0
 10
-14.55568524696186
 20
-12.21385946914709
 30
0.0
  0
SPLINE
  5
54
330
1F
100
AcDbEntity
  8
0
  6
Continuous
 62
     7
370
    15
100
AcDbSpline
210
0.0
220
0.0
230
1.0
 70
     8
 71
     3
 72
    23
 73
    19
 74
     0
 42
0.00000001
 43
0.00000001
 40
16.0
 40
16.0
 40
16.0
 40
16.0
 40
17.0
 40
17.0
 40
17.0
 40
18.0
 40
18.0
 40
18.0
 40
19.0
 40
19.0
 40
19.0
 40
20.0
 40
20.0
 40
20.0
 40
21.0
 40
21.0
 40
21.0
 40
22.0
 40
22.0
 40
22.0
 40
22.0
 10
-7.594005368936539
 20
-17.71687571729081
 30
0.0
 10
-7.723074623907435
 20
-17.54892212415346
 30
0.0
 10
-7.859602737795929
 20
-17.38726071668598
 30
0.0
 10
-8.005778588652321
 20
-17.23406137174567
 30
0.0
 10
-8.147492781265527
 20
-17.08553804225661
 30
0.0
 10
-8.289888433850665
 20
-16.9375498635536
 30
0.0
 10
-8.435856340401566
 20
-16.79324034549697
 30
0.0
 10
-8.5550600572303
 20
-16.67539087931773
 30
0.0
 10
-8.67800196188022
 20
-16.56111619070022
 30
0.0
 10
-8.80281955147953
 20
-16.44919791721398
 30
0.0
 10
-8.98149139098249
 20
-16.28899108075695
 30
0.0
 10
-9.161732580577066
 20
-16.13043909975991
 30
0.0
 10
-9.34435981528825
 20
-15.97476529477705
 30
0.0
 10
-9.530460200868182
 20
-15.81613083672681
 30
0.0
 10
-9.71802967555755
 20
-15.6590509731543
 30
0.0
 10
-9.908980145329803
 20
-15.50632116550567
 30
0.0
 10
-10.16998706348503
 20
-15.29755778987837
 30
0.0
 10
-10.43232195720259
 20
-15.09028580007287
 30
0.0
 10
-10.69861803555436
 20
-14.88834688103322
 30
0.0
  0
SPLINE
  5
55
330
1F
100
AcDbEntity
  8
0
  6
Continuous
 62
     7
370
    15
100
AcDbSpline
210
0.0
220
0.0
230
1.0
 70
     8
 71
     3
 72
     8
 73
     4
 74
     0
 42
0.00000001
 43
0.00000001
 40
15.0
 40
15.0
 40
15.0
 40
15.0
 40
16.0
 40
16.0
 40
16.0
 40
16.0
 10
-7.277601630592364
 20
-18.19797294877966
 30
0.0
 10
-7.367710364488766
 20
-18.02757722731712
 30
0.0
 10
-7.47670937188099
 20
-17.86950876730216
 30
0.0
 10
-7.594005368936539
 20
-17.71687571729081
 30
0.0
  0
SPLINE
  5
56
330
1F
100
AcDbEntity
  8
0
  6
Continuous
 62
     7
370
    15
100
AcDbSpline
210
0.0
220
0.0
230
1.0
 70
     8
 71
     3
 72
     8
 73
     4
 74
     0
 42
0.00000001
 43
0.00000001
 40
14.0
 40
14.0
 40
14.0
 40
14.0
 40
15.0
 40
15.0
 40
15.0
 40
15.0
 10
-7.117360324783728
 20
-18.65991620584159
 30
0.0
 10
-7.137327490890583
 20
-18.4944583303314
 30
0.0
 10
-7.200567142541751
 20
-18.3436457430524
 30
0.0
 10
-7.277601630592364
 20
-18.19797294877966
 30
0.0
  0
SPLINE
  5
57
330
1F
100
AcDbEntity
  8
0
  6
Continuous
 62
     7
370
    15
100
AcDbSpline
210
0.0
220
0.0
230
1.0
 70
     8
 71
     3
 72
     8
 73
     4
 74
     0
 42
0.00000001
 43
0.00000001
 40
13.0
 40
13.0
 40
13.0
 40
13.0
 40
14.0
 40
14.0
 40
14.0
 40
14.0
 10
-7.274354118889987
 20
-19.12815904122507
 30
0.0
 10
-7.138748186336683
 20
-19.00042910315356
 30
0.0
 10
-7.095552121215276
 20
-18.84063411755394
 30
0.0
 10
-7.117360324783728
 20
-18.65991620584159
 30
0.0
  0
SPLINE
  5
58
330
1F
100
AcDbEntity
  8
0
  6
Continuous
 62
     7
370
    15
100
AcDbSpline
210
0.0
220
0.0
230
1.0
 70
     8
 71
     3
 72
     8
 73
     4
 74
     0
 42
0.00000001
 43
0.00000001
 40
12.0
 40
12.0
 40
12.0
 40
12.0
 40
13.0
 40
13.0
 40
13.0
 40
13.0
 10
-7.508731696414316
 20
-19.27372694297483
 30
0.0
 10
-7.422684912853542
 20
-19.23801241944513
 30
0.0
 10
-7.34241936100824
 20
-19.19227203520767
 30
0.0
 10
-7.274354118889987
 20
-19.12815904122507
 30
0.0
  0
SPLINE
  5
59
330
1F
100
AcDbEntity
  8
0
  6
Continuous
 62
     7
370
    15
100
AcDbSpline
210
0.0
220
0.0
230
1.0
 70
     8
 71
     3
 72
     8
 73
     4
 74
     0
 42
0.00000001
 43
0.00000001
 40
11.0
 40
11.0
 40
11.0
 40
11.0
 40
12.0
 40
12.0
 40
12.0
 40
12.0
 10
-8.10555263562007
 20
-19.40265680638171
 30
0.0
 10
-7.901199080606335
 20
-19.38534719462521
 30
0.0
 10
-7.699802229974627
 20
-19.35303055942653
 30
0.0
 10
-7.508731696414316
 20
-19.27372694297483
 30
0.0
  0
SPLINE
  5
5A
330
1F
100
AcDbEntity
  8
0
  6
Continuous
 62
     7
370
    15
100
AcDbSpline
210
0.0
220
0.0
230
1.0
 70
     8
 71
     3
 72
    11
 73
     7
 74
     0
 42
0.00000001
 43
0.00000001
 40
9.0
 40
9.0
 40
9.0
 40
9.0
 40
10.0
 40
10.0
 40
10.0
 40
11.0
 40
11.0
 40
11.0
 40
11.0
 10
-10.77496468041983
 20
-19.14074911292273
 30
0.0
 10
-10.22929982171745
 20
-19.24655155556124
 30
0.0
 10
-9.68132798067487
 20
-19.33709200249953
 30
0.0
 10
-9.12725046254704
 20
-19.38613135010717
 30
0.0
 10
-8.787152741301227
 20
-19.4162319711769
 30
0.0
 10
-8.446609917110344
 20
-19.43154538885552
 30
0.0
 10
-8.10555263562007
 20
-19.40265680638171
 30
0.0
  0
SPLINE
  5
5B
330
1F
100
AcDbEntity
  8
0
  6
Continuous
 62
     7
370
    15
100
AcDbSpline
210
0.0
220
0.0
230
1.0
 70
     8
 71
     3
 72
     8
 73
     4
 74
     0
 42
0.00000001
 43
0.00000001
 40
8.0
 40
8.0
 40
8.0
 40
8.0
 40
9.0
 40
9.0
 40
9.0
 40
9.0
 10
-10.81401450710122
 20
-19.1335158337928
 30
0.0
 10
-10.79715569864769
 20
-19.13663297949783
 30
0.0
 10
-10.78604285094521
 20
-19.13860055302881
 30
0.0
 10
-10.77496468041983
 20
-19.14074911292273
 30
0.0
  0
SPLINE
  5
5C
330
1F
100
AcDbEntity
  8
0
  6
Continuous
 62
     7
370
    15
100
AcDbSpline
210
0.0
220
0.0
230
1.0
 70
     8
 71
     3
 72
    14
 73
    10
 74
     0
 42
0.00000001
 43
0.00000001
 40
5.0
 40
5.0
 40
5.0
 40
5.0
 40
6.0
 40
6.0
 40
6.0
 40
7.0
 40
7.0
 40
7.0
 40
8.0
 40
8.0
 40
8.0
 40
8.0
 10
-10.23850827485559
 20
-19.69366720200768
 30
0.0
 10
-10.25030421544498
 20
-19.69169107793988
 30
0.0
 10
-10.2636164512326
 20
-19.68607242518165
 30
0.0
 10
-10.27191735989197
 20
-19.67781759441521
 30
0.0
 10
-10.44945951909475
 20
-19.50126302221652
 30
0.0
 10
-10.62638888982454
 20
-19.32409186130627
 30
0.0
 10
-10.8033945028411
 20
-19.14699884280211
 30
0.0
 10
-10.80577463977421
 20
-19.14461728077952
 30
0.0
 10
-10.80761158010362
 20
-19.14169442227249
 30
0.0
 10
-10.81401450710122
 20
-19.1335158337928
 30
0.0
  0
SPLINE
  5
5D
330
1F
100
AcDbEntity
  8
0
  6
Continuous
 62
     7
370
    15
100
AcDbSpline
210
0.0
220
0.0
230
1.0
 70
     8
 71
     3
 72
     8
 73
     4
 74
     0
 42
0.00000001
 43
0.00000001
 40
4.0
 40
4.0
 40
4.0
 40
4.0
 40
5.0
 40
5.0
 40
5.0
 40
5.0
 10
-9.571056457452247
 20
-19.8034838841738
 30
0.0
 10
-9.794071321586625
 20
-19.77044817257908
 30
0.0
 10
-10.01612852559585
 20
-19.73091405299212
 30
0.0
 10
-10.23850827485559
 20
-19.69366720200768
 30
0.0
  0
SPLINE
  5
5E
330
1F
100
AcDbEntity
  8
0
  6
Continuous
 62
     7
370
    15
100
AcDbSpline
210
0.0
220
0.0
230
1.0
 70
     8
 71
     3
 72
     8
 73
     4
 74
     0
 42
0.00000001
 43
0.00000001
 40
3.0
 40
3.0
 40
3.0
 40
3.0
 40
4.0
 40
4.0
 40
4.0
 40
4.0
 10
-7.987944039250917
 20
-19.93109257088273
 30
0.0
 10
-8.51947082281668
 20
-19.93647252115435
 30
0.0
 10
-9.046289348281926
 20
-19.88121990220637
 30
0.0
 10
-9.571056457452247
 20
-19.8034838841738
 30
0.0
  0
SPLINE
  5
5F
330
1F
100
AcDbEntity
  8
0
  6
Continuous
 62
     7
370
    15
100
AcDbSpline
210
0.0
220
0.0
230
1.0
 70
     8
 71
     3
 72
     8
 73
     4
 74
     0
 42
0.00000001
 43
0.00000001
 40
2.0
 40
2.0
 40
2.0
 40
2.0
 40
3.0
 40
3.0
 40
3.0
 40
3.0
 10
-7.263397318484665
 20
-19.86323657940199
 30
0.0
 10
-7.502393848502598
 20
-19.91203116789281
 30
0.0
 10
-7.744605974156611
 20
-19.92862882870061
 30
0.0
 10
-7.987944039250917
 20
-19.93109257088273
 30
0.0
  0
SPLINE
  5
60
330
1F
100
AcDbEntity
  8
0
  6
Continuous
 62
     7
370
    15
100
AcDbSpline
210
0.0
220
0.0
230
1.0
 70
     8
 71
     3
 72
     8
 73
     4
 74
     0
 42
0.00000001
 43
0.00000001
 40
1.0
 40
1.0
 40
1.0
 40
1.0
 40
2.0
 40
2.0
 40
2.0
 40
2.0
 10
-6.736467398525721
 20
-19.66612746671907
 30
0.0
 10
-6.897742280163279
 20
-19.77001874561818
 30
0.0
 10
-7.077497009528741
 20
-19.82528335906925
 30
0.0
 10
-7.263397318484665
 20
-19.86323657940199
 30
0.0
  0
SPLINE
  5
61
330
1F
100
AcDbEntity
  8
0
  6
Continuous
 62
     7
370
    15
100
AcDbSpline
210
0.0
220
0.0
230
1.0
 70
     8
 71
     3
 72
     8
 73
     4
 74
     0
 42
0.00000001
 43
0.00000001
 40
0.0
 40
0.0
 40
0.0
 40
0.0
 40
1.0
 40
1.0
 40
1.0
 40
1.0
 10
-6.640254976731479
 20
-19.59876455619563
 30
0.0
 10
-6.672284100129152
 20
-19.62128358251699
 30
0.0
 10
-6.703579243070047
 20
-19.64494214600733
 30
0.0
 10
-6.736467398525721
 20
-19.66612746671907
 30
0.0
  0
SPLINE
  5
63
330
1F
100
AcDbEntity
  8
0
  6
Continuous
 62
     7
370
    15
100
AcDbSpline
210
0.0
220
0.0
230
1.0
 70
     8
 71
     3
 72
    11
 73
     7
 74
     0
 42
0.00000001
 43
0.00000001
 40
0.0
 40
0.0
 40
0.0
 40
0.0
 40
1.0
 40
1.0
 40
1.0
 40
2.0
 40
2.0
 40
2.0
 40
2.0
 10
-8.93039834099891
 20
-19.30634937862268
 30
0.0
 10
-8.929784958738692
 20
-19.29577747113223
 30
0.0
 10
-8.929050206358433
 20
-19.29036082480669
 30
0.0
 10
-8.92921967324812
 20
-19.28497244275565
 30
0.0
 10
-8.938461615988817
 20
-18.99101234943762
 30
0.0
 10
-8.947619240935797
 20
-18.69704964345554
 30
0.0
 10
-8.957705192916277
 20
-18.40311840819931
 30
0.0
  0
SPLINE
  5
64
330
1F
100
AcDbEntity
  8
0
  6
Continuous
 62
     7
370
    15
100
AcDbSpline
210
0.0
220
0.0
230
1.0
 70
     8
 71
     3
 72
    14
 73
    10
 74
     0
 42
0.00000001
 43
0.00000001
 40
2.0
 40
2.0
 40
2.0
 40
2.0
 40
3.0
 40
3.0
 40
3.0
 40
4.0
 40
4.0
 40
4.0
 40
5.0
 40
5.0
 40
5.0
 40
5.0
 10
-8.957705192916277
 20
-18.40311840819931
 30
0.0
 10
-8.958085573047827
 20
-18.39201256718671
 30
0.0
 10
-8.965052004174158
 20
-18.3787503282881
 30
0.0
 10
-8.973116941768476
 20
-18.37063955031574
 30
0.0
 10
-9.142481700066114
 20
-18.20031048147542
 30
0.0
 10
-9.312434901558188
 20
-18.03056795571028
 30
0.0
 10
-9.482351406996388
 20
-17.86078873389122
 30
0.0
 10
-9.48765867770497
 20
-17.85548573845104
 30
0.0
 10
-9.493801407116477
 20
-17.85101820171385
 30
0.0
 10
-9.503186452591672
 20
-17.84309506052198
 30
0.0
  0
SPLINE
  5
67
330
1F
100
AcDbEntity
  8
0
  6
Continuous
 62
     7
370
    15
100
AcDbSpline
210
0.0
220
0.0
230
1.0
 70
     8
 71
     3
 72
    17
 73
    13
 74
     0
 42
0.00000001
 43
0.00000001
 40
40.0
 40
40.0
 40
40.0
 40
40.0
 40
41.0
 40
41.0
 40
41.0
 40
42.0
 40
42.0
 40
42.0
 40
43.0
 40
43.0
 40
43.0
 40
44.0
 40
44.0
 40
44.0
 40
44.0
 10
-20.90195104344049
 20
-9.081452599701835
 30
0.0
 10
-20.96414479817669
 20
-9.013092007790533
 30
0.0
 10
-21.02783166071783
 20
-8.946046684393792
 30
0.0
 10
-21.08866118917825
 20
-8.876499883633246
 30
0.0
 10
-21.15198904792987
 20
-8.804097055124034
 30
0.0
 10
-21.20927979718242
 20
-8.727106344040651
 30
0.0
 10
-21.25017833602602
 20
-8.63915420101115
 30
0.0
 10
-21.3079339093837
 20
-8.514950980843409
 30
0.0
 10
-21.30198563602846
 20
-8.39642861450705
 30
0.0
 10
-21.21944702750802
 20
-8.284433009505525
 30
0.0
 10
-21.19798035553834
 20
-8.255305204981305
 30
0.0
 10
-21.17670530429065
 20
-8.226036607926208
 30
0.0
 10
-21.15534228786446
 20
-8.19683269958826
 30
0.0
  0
SPLINE
  5
68
330
1F
100
AcDbEntity
  8
0
  6
Continuous
 62
     7
370
    15
100
AcDbSpline
210
0.0
220
0.0
230
1.0
 70
     8
 71
     3
 72
     8
 73
     4
 74
     0
 42
0.00000001
 43
0.00000001
 40
39.0
 40
39.0
 40
39.0
 40
39.0
 40
40.0
 40
40.0
 40
40.0
 40
40.0
 10
-20.89072406982277
 20
-9.09964778580773
 30
0.0
 10
-20.89442205824511
 20
-9.093542346237397
 30
0.0
 10
-20.89723750063319
 20
-9.086634046885784
 30
0.0
 10
-20.90195104344049
 20
-9.081452599701835
 30
0.0
  0
SPLINE
  5
6A
330
1F
100
AcDbEntity
  8
0
  6
Continuous
 62
     7
370
    15
100
AcDbSpline
210
0.0
220
0.0
230
1.0
 70
     8
 71
     3
 72
    11
 73
     7
 74
     0
 42
0.00000001
 43
0.00000001
 40
36.0
 40
36.0
 40
36.0
 40
36.0
 40
37.0
 40
37.0
 40
37.0
 40
38.0
 40
38.0
 40
38.0
 40
38.0
 10
-20.09317785339901
 20
-9.84149200506997
 30
0.0
 10
-20.20147254000909
 20
-9.769908573317794
 30
0.0
 10
-20.29551680692918
 20
-9.681382727863065
 30
0.0
 10
-20.38934422273461
 20
-9.59255072568676
 30
0.0
 10
-20.41169188204693
 20
-9.571393016083515
 30
0.0
 10
-20.43558908864512
 20
-9.551871784223945
 30
0.0
 10
-20.45877375050733
 20
-9.531598105123173
 30
0.0
  0
SPLINE
  5
6B
330
1F
100
AcDbEntity
  8
0
  6
Continuous
 62
     7
370
    15
100
AcDbSpline
210
0.0
220
0.0
230
1.0
 70
     8
 71
     3
 72
    11
 73
     7
 74
     0
 42
0.00000001
 43
0.00000001
 40
34.0
 40
34.0
 40
34.0
 40
34.0
 40
35.0
 40
35.0
 40
35.0
 40
36.0
 40
36.0
 40
36.0
 40
36.0
 10
-19.39563123404129
 20
-9.626622714842528
 30
0.0
 10
-19.46350622671499
 20
-9.707685247975045
 30
0.0
 10
-19.54249667975526
 20
-9.777442783841243
 30
0.0
 10
-19.62958472869024
 20
-9.837659108177638
 30
0.0
 10
-19.79166324203256
 20
-9.949726956679694
 30
0.0
 10
-19.92782270308827
 20
-9.95079316111965
 30
0.0
 10
-20.09317785339901
 20
-9.84149200506997
 30
0.0
  0
SPLINE
  5
6C
330
1F
100
AcDbEntity
  8
0
  6
Continuous
 62
     7
370
    15
100
AcDbSpline
210
0.0
220
0.0
230
1.0
 70
     8
 71
     3
 72
    11
 73
     7
 74
     0
 42
0.00000001
 43
0.00000001
 40
32.0
 40
32.0
 40
32.0
 40
32.0
 40
33.0
 40
33.0
 40
33.0
 40
34.0
 40
34.0
 40
34.0
 40
34.0
 10
-19.31579879063798
 20
-9.075700819835458
 30
0.0
 10
-19.22826278857899
 20
-9.193705947350164
 30
0.0
 10
-19.20152858511445
 20
-9.32895667635259
 30
0.0
 10
-19.27743740092902
 20
-9.46559306735162
 30
0.0
 10
-19.30953956016216
 20
-9.523377001474236
 30
0.0
 10
-19.3529151271783
 20
-9.57560688689472
 30
0.0
 10
-19.39563123404129
 20
-9.626622714842528
 30
0.0
  0
SPLINE
  5
6D
330
1F
100
AcDbEntity
  8
0
  6
Continuous
 62
     7
370
    15
100
AcDbSpline
210
0.0
220
0.0
230
1.0
 70
     8
 71
     3
 72
    14
 73
    10
 74
     0
 42
0.00000001
 43
0.00000001
 40
29.0
 40
29.0
 40
29.0
 40
29.0
 40
30.0
 40
30.0
 40
30.0
 40
31.0
 40
31.0
 40
31.0
 40
32.0
 40
32.0
 40
32.0
 40
32.0
 10
-20.16024553288686
 20
-8.118512636794144
 30
0.0
 10
-20.11373393773014
 20
-8.178532180025915
 30
0.0
 10
-20.06673644644222
 20
-8.238611042606985
 30
0.0
 10
-20.01502149335095
 20
-8.294076118643783
 30
0.0
 10
-19.8869237040595
 20
-8.431462403598708
 30
0.0
 10
-19.75304212976727
 20
-8.5635440898878
 30
0.0
 10
-19.62719354731372
 20
-8.702912496162066
 30
0.0
 10
-19.51871526167669
 20
-8.82304421344133
 30
0.0
 10
-19.41212510083256
 20
-8.945846192118719
 30
0.0
 10
-19.31579879063798
 20
-9.075700819835458
 30
0.0
  0
SPLINE
  5
6E
330
1F
100
AcDbEntity
  8
0
  6
Continuous
 62
     7
370
    15
100
AcDbSpline
210
0.0
220
0.0
230
1.0
 70
     8
 71
     3
 72
    14
 73
    10
 74
     0
 42
0.00000001
 43
0.00000001
 40
26.0
 40
26.0
 40
26.0
 40
26.0
 40
27.0
 40
27.0
 40
27.0
 40
28.0
 40
28.0
 40
28.0
 40
29.0
 40
29.0
 40
29.0
 40
29.0
 10
-19.98243946492749
 20
-7.944794734878793
 30
0.0
 10
-20.01976335981152
 20
-7.916474555278756
 30
0.0
 10
-20.06177090031328
 20
-7.914460725718642
 30
0.0
 10
-20.09993182743655
 20
-7.942375497053286
 30
0.0
 10
-20.12379931498139
 20
-7.959834654136276
 30
0.0
 10
-20.14611728492973
 20
-7.981606814816831
 30
0.0
 10
-20.16317756540737
 20
-8.005665115904106
 30
0.0
 10
-20.18905668549935
 20
-8.042159786851608
 30
0.0
 10
-20.18741999993014
 20
-8.083446499284836
 30
0.0
 10
-20.16024553288686
 20
-8.118512636794144
 30
0.0
  0
SPLINE
  5
6F
330
1F
100
AcDbEntity
  8
0
  6
Continuous
 62
     7
370
    15
100
AcDbSpline
210
0.0
220
0.0
230
1.0
 70
     8
 71
     3
 72
    20
 73
    16
 74
     0
 42
0.00000001
 43
0.00000001
 40
21.0
 40
21.0
 40
21.0
 40
21.0
 40
22.0
 40
22.0
 40
22.0
 40
23.0
 40
23.0
 40
23.0
 40
24.0
 40
24.0
 40
24.0
 40
25.0
 40
25.0
 40
25.0
 40
26.0
 40
26.0
 40
26.0
 40
26.0
 10
-19.39213382696213
 20
-8.765974130386713
 30
0.0
 10
-19.376422334291
 20
-8.746678775208443
 30
0.0
 10
-19.36137588337344
 20
-8.728532042144593
 30
0.0
 10
-19.34669069263704
 20
-8.710097441007418
 30
0.0
 10
-19.31348503912276
 20
-8.668414167739238
 30
0.0
 10
-19.31430992841214
 20
-8.62425420772623
 30
0.0
 10
-19.34485244597565
 20
-8.58343727009955
 30
0.0
 10
-19.37985133707549
 20
-8.536665002326929
 30
0.0
 10
-19.41651687031283
 20
-8.49049673497554
 30
0.0
 10
-19.45732543553883
 20
-8.448833591096138
 30
0.0
 10
-19.5894733884884
 20
-8.313917876877095
 30
0.0
 10
-19.72307974237633
 20
-8.180400591081161
 30
0.0
 10
-19.85786019185299
 20
-8.048113098120789
 30
0.0
 10
-19.89624355169133
 20
-8.010439432839497
 30
0.0
 10
-19.93947821298596
 20
-7.977392023635354
 30
0.0
 10
-19.98243946492749
 20
-7.944794734878793
 30
0.0
  0
SPLINE
  5
71
330
1F
100
AcDbEntity
  8
0
  6
Continuous
 62
     7
370
    15
100
AcDbSpline
210
0.0
220
0.0
230
1.0
 70
     8
 71
     3
 72
    38
 73
    34
 74
     0
 42
0.00000001
 43
0.00000001
 40
9.0
 40
9.0
 40
9.0
 40
9.0
 40
10.0
 40
10.0
 40
10.0
 40
11.0
 40
11.0
 40
11.0
 40
12.0
 40
12.0
 40
12.0
 40
13.0
 40
13.0
 40
13.0
 40
14.0
 40
14.0
 40
14.0
 40
15.0
 40
15.0
 40
15.0
 40
16.0
 40
16.0
 40
16.0
 40
17.0
 40
17.0
 40
17.0
 40
18.0
 40
18.0
 40
18.0
 40
19.0
 40
19.0
 40
19.0
 40
20.0
 40
20.0
 40
20.0
 40
20.0
 10
-20.50556202084714
 20
-8.402257243436562
 30
0.0
 10
-20.56932316617698
 20
-8.334865920191739
 30
0.0
 10
-20.63012359906069
 20
-8.265685961212794
 30
0.0
 10
-20.68066377370787
 20
-8.187655335621276
 30
0.0
 10
-20.76707459340535
 20
-8.054242214958931
 30
0.0
 10
-20.77169385021492
 20
-7.919287600250688
 30
0.0
 10
-20.68551581739824
 20
-7.78505321982372
 30
0.0
 10
-20.5935800770481
 20
-7.641850384871489
 30
0.0
 10
-20.47406199067751
 20
-7.525509275696743
 30
0.0
 10
-20.32840630211736
 20
-7.437207788126769
 30
0.0
 10
-20.17609729295822
 20
-7.34487287520547
 30
0.0
 10
-20.02686618387606
 20
-7.36248200811069
 30
0.0
 10
-19.88958375231642
 20
-7.465634021846191
 30
0.0
 10
-19.78956215543164
 20
-7.540788757504518
 30
0.0
 10
-19.69470585471682
 20
-7.623842942242229
 30
0.0
 10
-19.6040265209337
 20
-7.710180978463855
 30
0.0
 10
-19.44272592830694
 20
-7.863759248756864
 30
0.0
 10
-19.28447936179735
 20
-8.020674069154916
 30
0.0
 10
-19.1285203014052
 20
-8.179689708949548
 30
0.0
 10
-19.01830934448513
 20
-8.29206086399422
 30
0.0
 10
-18.91003365906801
 20
-8.407022594184046
 30
0.0
 10
-18.83115305667456
 20
-8.545299975710039
 30
0.0
 10
-18.82074265932427
 20
-8.563549315215884
 30
0.0
 10
-18.81146782076826
 20
-8.582468446773522
 30
0.0
 10
-18.80215783000524
 20
-8.601319886581251
 30
0.0
 10
-18.7397007899891
 20
-8.727788382955163
 30
0.0
 10
-18.75580620114177
 20
-8.84816260295955
 30
0.0
 10
-18.83903558281646
 20
-8.957638807499366
 30
0.0
 10
-18.88870375115359
 20
-9.022970371737959
 30
0.0
 10
-18.94814458930229
 20
-9.080874725920948
 30
0.0
 10
-19.00331229666928
 20
-9.14200975793694
 30
0.0
 10
-19.0049669443037
 20
-9.143843254300092
 30
0.0
 10
-19.00796580758259
 20
-9.144463880765143
 30
0.0
 10
-19.01175120149253
 20
-9.14635675585631
 30
0.0
  0
SPLINE
  5
72
330
1F
100
AcDbEntity
  8
0
  6
Continuous
 62
     7
370
    15
100
AcDbSpline
210
0.0
220
0.0
230
1.0
 70
     8
 71
     3
 72
     8
 73
     4
 74
     0
 42
0.00000001
 43
0.00000001
 40
8.0
 40
8.0
 40
8.0
 40
8.0
 40
9.0
 40
9.0
 40
9.0
 40
9.0
 10
-20.120170651224
 20
-8.817013056659714
 30
0.0
 10
-20.24821850300522
 20
-8.678373939922748
 30
0.0
 10
-20.37586347011695
 20
-8.53934155787024
 30
0.0
 10
-20.50556202084714
 20
-8.402257243436562
 30
0.0
  0
SPLINE
  5
73
330
1F
100
AcDbEntity
  8
0
  6
Continuous
 62
     7
370
    15
100
AcDbSpline
210
0.0
220
0.0
230
1.0
 70
     8
 71
     3
 72
    17
 73
    13
 74
     0
 42
0.00000001
 43
0.00000001
 40
4.0
 40
4.0
 40
4.0
 40
4.0
 40
5.0
 40
5.0
 40
5.0
 40
6.0
 40
6.0
 40
6.0
 40
7.0
 40
7.0
 40
7.0
 40
8.0
 40
8.0
 40
8.0
 40
8.0
 10
-20.1759780456277
 20
-9.213891983448406
 30
0.0
 10
-20.13338212131019
 20
-9.256603340013182
 30
0.0
 10
-20.08957178324764
 20
-9.298851780014445
 30
0.0
 10
-20.04191132846158
 20
-9.335595099385456
 30
0.0
 10
-19.96249999899726
 20
-9.396816586829386
 30
0.0
 10
-19.9130580636138
 20
-9.384581124895346
 30
0.0
 10
-19.8396091897428
 20
-9.305914048407772
 30
0.0
 10
-19.77677616362095
 20
-9.23861692951493
 30
0.0
 10
-19.78296223950391
 20
-9.185864630045515
 30
0.0
 10
-19.85103246943527
 20
-9.110898392159205
 30
0.0
 10
-19.94032774444745
 20
-9.01255712420873
 30
0.0
 10
-20.03004419277731
 20
-8.914593208074699
 30
0.0
 10
-20.120170651224
 20
-8.817013056659714
 30
0.0
  0
SPLINE
  5
74
330
1F
100
AcDbEntity
  8
0
  6
Continuous
 62
     7
370
    15
100
AcDbSpline
210
0.0
220
0.0
230
1.0
 70
     8
 71
     3
 72
    14
 73
    10
 74
     0
 42
0.00000001
 43
0.00000001
 40
1.0
 40
1.0
 40
1.0
 40
1.0
 40
2.0
 40
2.0
 40
2.0
 40
3.0
 40
3.0
 40
3.0
 40
4.0
 40
4.0
 40
4.0
 40
4.0
 10
-20.64392051371558
 20
-8.45141914873877
 30
0.0
 10
-20.65842171946328
 20
-8.469441334920631
 30
0.0
 10
-20.67126866353828
 20
-8.484739907917268
 30
0.0
 10
-20.68339543271073
 20
-8.500590495258736
 30
0.0
 10
-20.74791169732456
 20
-8.5849186506057
 30
0.0
 10
-20.74233962717846
 20
-8.635534473752324
 30
0.0
 10
-20.67379861300216
 20
-8.708309903779734
 30
0.0
 10
-20.51168126597175
 20
-8.880443254649066
 30
0.0
 10
-20.34300001621211
 20
-9.046418734531196
 30
0.0
 10
-20.1759780456277
 20
-9.213891983448406
 30
0.0
  0
SPLINE
  5
DF
330
1F
100
AcDbEntity
  8
0
  6
Continuous
 62
     7
370
    15
100
AcDbSpline
210
0.0
220
0.0
230
1.0
 70
     8
 71
     3
 72
    20
 73
    16
 74
     0
 42
0.00000001
 43
0.00000001
 40
0.0
 40
0.0
 40
0.0
 40
0.0
 40
1.0
 40
1.0
 40
1.0
 40
2.0
 40
2.0
 40
2.0
 40
3.0
 40
3.0
 40
3.0
 40
4.0
 40
4.0
 40
4.0
 40
5.0
 40
5.0
 40
5.0
 40
5.0
 10
-18.82143394647564
 20
-9.184812676500274
 30
0.0
 10
-18.81108815318143
 20
-9.19515846979448
 30
0.0
 10
-18.80273261609229
 20
-9.203514006883626
 30
0.0
 10
-18.79437696024569
 20
-9.211869662730221
 30
0.0
 10
-18.62059430582746
 20
-9.385652554663364
 30
0.0
 10
-18.44680998880487
 20
-9.55943378399211
 30
0.0
 10
-18.27303018456558
 20
-9.733219526104195
 30
0.0
 10
-18.24117907859443
 20
-9.765071819649894
 30
0.0
 10
-18.24117539711328
 20
-9.765092839719602
 30
0.0
 10
-18.27217192443108
 20
-9.79608984206722
 30
0.0
 10
-18.57628720532647
 20
-10.10021177338014
 30
0.0
 10
-18.88040664273281
 20
-10.40432931066719
 30
0.0
 10
-19.18452501132205
 20
-10.70844815428625
 30
0.0
 10
-19.19338978038252
 20
-10.71731292334672
 30
0.0
 10
-19.20225454944298
 20
-10.72617721737736
 30
0.0
 10
-19.21152143124942
 20
-10.73544409918381
 30
0.0
  0
SPLINE
  5
E1
330
1F
100
AcDbEntity
  8
0
  6
Continuous
 62
     7
370
    15
100
AcDbSpline
210
0.0
220
0.0
230
1.0
 70
     8
 71
     3
 72
    20
 73
    16
 74
     0
 42
0.00000001
 43
0.00000001
 40
6.0
 40
6.0
 40
6.0
 40
6.0
 40
7.0
 40
7.0
 40
7.0
 40
8.0
 40
8.0
 40
8.0
 40
9.0
 40
9.0
 40
9.0
 40
10.0
 40
10.0
 40
10.0
 40
11.0
 40
11.0
 40
11.0
 40
11.0
 10
-18.79535587795549
 20
-11.15160965247775
 30
0.0
 10
-18.78518620196853
 20
-11.14143997649079
 30
0.0
 10
-18.77677983668822
 20
-11.13303313618066
 30
0.0
 10
-18.76837347140792
 20
-11.12462677090037
 30
0.0
 10
-18.46230819308503
 20
-10.81856196760729
 30
0.0
 10
-18.15624564618363
 20
-10.51249419537787
 30
0.0
 10
-17.85017169856646
 20
-10.20643782386416
 30
0.0
 10
-17.82505437786536
 20
-10.18132192825253
 30
0.0
 10
-17.82496424095626
 20
-10.18130637102578
 30
0.0
 10
-17.79934410118641
 20
-10.20692152298245
 30
0.0
 10
-17.62295092037044
 20
-10.38328121419586
 30
0.0
 10
-17.44659740454477
 20
-10.55968104542938
 30
0.0
 10
-17.2701523267205
 20
-10.73598883963449
 30
0.0
 10
-17.26208038243628
 20
-10.74405460853099
 30
0.0
 10
-17.2532524281872
 20
-10.75136341740297
 30
0.0
 10
-17.24570384801156
 20
-10.75818638952242
 30
0.0
  0
SPLINE
  5
E8
330
1F
100
AcDbEntity
  8
0
  6
Continuous
 62
     7
370
    15
100
AcDbSpline
210
0.0
220
0.0
230
1.0
 70
     8
 71
     3
 72
    14
 73
    10
 74
     0
 42
0.00000001
 43
0.00000001
 40
3.0
 40
3.0
 40
3.0
 40
3.0
 40
4.0
 40
4.0
 40
4.0
 40
5.0
 40
5.0
 40
5.0
 40
6.0
 40
6.0
 40
6.0
 40
6.0
 10
-17.39529121461705
 20
-11.89293810810862
 30
0.0
 10
-17.38691050094723
 20
-11.90131882177844
 30
0.0
 10
-17.381162402562
 20
-11.90706692016367
 30
0.0
 10
-17.37541454169167
 20
-11.91281478103399
 30
0.0
 10
-17.17569371503646
 20
-12.11253845786815
 30
0.0
 10
-16.97578168887708
 20
-12.3120718852578
 30
0.0
 10
-16.77645561200562
 20
-12.51218793672658
 30
0.0
 10
-16.74610571903574
 20
-12.54265801224192
 30
0.0
 10
-16.71756758981456
 20
-12.57506810955843
 30
0.0
 10
-16.68977216972324
 20
-12.6079178469771
 30
0.0
  0
SPLINE
  5
E9
330
1F
100
AcDbEntity
  8
0
  6
Continuous
 62
     7
370
    15
100
AcDbSpline
210
0.0
220
0.0
230
1.0
 70
     8
 71
     3
 72
     8
 73
     4
 74
     0
 42
0.00000001
 43
0.00000001
 40
6.0
 40
6.0
 40
6.0
 40
6.0
 40
7.0
 40
7.0
 40
7.0
 40
7.0
 10
-16.68977216972324
 20
-12.6079178469771
 30
0.0
 10
-16.63812431459457
 20
-12.66895846681555
 30
0.0
 10
-16.63242466925139
 20
-12.72633518162155
 30
0.0
 10
-16.67691738765612
 20
-12.79388299750399
 30
0.0
  0
SPLINE
  5
EA
330
1F
100
AcDbEntity
  8
0
  6
Continuous
 62
     7
370
    15
100
AcDbSpline
210
0.0
220
0.0
230
1.0
 70
     8
 71
     3
 72
     8
 73
     4
 74
     0
 42
0.00000001
 43
0.00000001
 40
7.0
 40
7.0
 40
7.0
 40
7.0
 40
8.0
 40
8.0
 40
8.0
 40
8.0
 10
-16.67691738765612
 20
-12.79388299750399
 30
0.0
 10
-16.70493179649634
 20
-12.83641431776547
 30
0.0
 10
-16.73888312807683
 20
-12.87549597144509
 30
0.0
 10
-16.7734087707145
 20
-12.91315776098078
 30
0.0
  0
SPLINE
  5
EB
330
1F
100
AcDbEntity
  8
0
  6
Continuous
 62
     7
370
    15
100
AcDbSpline
210
0.0
220
0.0
230
1.0
 70
     8
 71
     3
 72
     8
 73
     4
 74
     0
 42
0.00000001
 43
0.00000001
 40
8.0
 40
8.0
 40
8.0
 40
8.0
 40
9.0
 40
9.0
 40
9.0
 40
9.0
 10
-16.7734087707145
 20
-12.91315776098078
 30
0.0
 10
-16.81471783923884
 20
-12.95821861505501
 30
0.0
 10
-16.85947894949413
 20
-13.00011434541196
 30
0.0
 10
-16.90363035897033
 20
-13.04426575488816
 30
0.0
  0
SPLINE
  5
ED
330
1F
100
AcDbEntity
  8
0
  6
Continuous
 62
     7
370
    15
100
AcDbSpline
210
0.0
220
0.0
230
1.0
 70
     8
 71
     3
 72
    17
 73
    13
 74
     0
 42
0.00000001
 43
0.00000001
 40
10.0
 40
10.0
 40
10.0
 40
10.0
 40
11.0
 40
11.0
 40
11.0
 40
12.0
 40
12.0
 40
12.0
 40
13.0
 40
13.0
 40
13.0
 40
14.0
 40
14.0
 40
14.0
 40
14.0
 10
-16.51351259104525
 20
-13.43438352281325
 30
0.0
 10
-16.50976793094269
 20
-13.43198604729153
 30
0.0
 10
-16.50713959092655
 20
-13.43093290617173
 30
0.0
 10
-16.50535585393745
 20
-13.4290712642915
 30
0.0
 10
-16.40266628173558
 20
-13.32190976132656
 30
0.0
 10
-16.2974773401148
 20
-13.21699538694404
 30
0.0
 10
-16.19819444429571
 20
-13.10676210362226
 30
0.0
 10
-16.11167702493679
 20
-13.01070228515895
 30
0.0
 10
-16.10698800554415
 20
-12.88875595395204
 30
0.0
 10
-16.1769487354176
 20
-12.77966559238679
 30
0.0
 10
-16.18960400495861
 20
-12.75993237846827
 30
0.0
 10
-16.20401545975893
 20
-12.74132546026243
 30
0.0
 10
-16.21761603864971
 20
-12.72219838439931
 30
0.0
  0
SPLINE
  5
EE
330
1F
100
AcDbEntity
  8
0
  6
Continuous
 62
     7
370
    15
100
AcDbSpline
210
0.0
220
0.0
230
1.0
 70
     8
 71
     3
 72
    11
 73
     7
 74
     0
 42
0.00000001
 43
0.00000001
 40
14.0
 40
14.0
 40
14.0
 40
14.0
 40
15.0
 40
15.0
 40
15.0
 40
16.0
 40
16.0
 40
16.0
 40
16.0
 10
-16.21761603864971
 20
-12.72219838439931
 30
0.0
 10
-16.20484414928687
 20
-12.72567061489778
 30
0.0
 10
-16.19483170817165
 20
-12.73173508314582
 30
0.0
 10
-16.18492092343877
 20
-12.73796011147434
 30
0.0
 10
-16.03980715020075
 20
-12.82910717149788
 30
0.0
 10
-15.92542234373216
 20
-12.82673629764631
 30
0.0
 10
-15.78957889626686
 20
-12.72287470811123
 30
0.0
  0
SPLINE
  5
EF
330
1F
100
AcDbEntity
  8
0
  6
Continuous
 62
     7
370
    15
100
AcDbSpline
210
0.0
220
0.0
230
1.0
 70
     8
 71
     3
 72
     8
 73
     4
 74
     0
 42
0.00000001
 43
0.00000001
 40
16.0
 40
16.0
 40
16.0
 40
16.0
 40
17.0
 40
17.0
 40
17.0
 40
17.0
 10
-15.78957889626686
 20
-12.72287470811123
 30
0.0
 10
-15.663164315778
 20
-12.62622264621487
 30
0.0
 10
-15.55309313638364
 20
-12.51217451713404
 30
0.0
 10
-15.4556801954667
 20
-12.3863946952475
 30
0.0
  0
SPLINE
  5
F0
330
1F
100
AcDbEntity
  8
0
  6
Continuous
 62
     7
370
    15
100
AcDbSpline
210
0.0
220
0.0
230
1.0
 70
     8
 71
     3
 72
    17
 73
    13
 74
     0
 42
0.00000001
 43
0.00000001
 40
17.0
 40
17.0
 40
17.0
 40
17.0
 40
18.0
 40
18.0
 40
18.0
 40
19.0
 40
19.0
 40
19.0
 40
20.0
 40
20.0
 40
20.0
 40
21.0
 40
21.0
 40
21.0
 40
21.0
 10
-15.4556801954667
 20
-12.3863946952475
 30
0.0
 10
-15.34253592938347
 20
-12.2403014105124
 30
0.0
 10
-15.3304397699453
 20
-12.08614188185101
 30
0.0
 10
-15.44703192124853
 20
-11.91977111777655
 30
0.0
 10
-15.49914934335819
 20
-11.84540234865138
 30
0.0
 10
-15.56621726036094
 20
-11.78078249784659
 30
0.0
 10
-15.63073569229833
 20
-11.71595220882975
 30
0.0
 10
-16.0188621352012
 20
-11.32594844806244
 30
0.0
 10
-16.4082179552886
 20
-10.9371678890919
 30
0.0
 10
-16.79716239954841
 20
-10.5479783294429
 30
0.0
 10
-16.80411232338835
 20
-10.54102413033455
 30
0.0
 10
-16.8110665224967
 20
-10.53407373146479
 30
0.0
 10
-16.81913252890812
 20
-10.52600772505337
 30
0.0
  0
SPLINE
  5
F5
330
1F
100
AcDbEntity
  8
0
  6
Continuous
 62
     7
370
    15
100
AcDbSpline
210
0.0
220
0.0
230
1.0
 70
     8
 71
     3
 72
    17
 73
    13
 74
     0
 42
0.00000001
 43
0.00000001
 40
0.0
 40
0.0
 40
0.0
 40
0.0
 40
1.0
 40
1.0
 40
1.0
 40
2.0
 40
2.0
 40
2.0
 40
3.0
 40
3.0
 40
3.0
 40
4.0
 40
4.0
 40
4.0
 40
4.0
 10
-15.04511678764457
 20
-14.26645835081109
 30
0.0
 10
-15.03495399959006
 20
-14.2766211388656
 30
0.0
 10
-15.0267704232972
 20
-14.28486599400576
 30
0.0
 10
-15.01852129288864
 20
-14.2930452950302
 30
0.0
 10
-14.79973086897903
 20
-14.50998452771571
 30
0.0
 10
-14.58117273465333
 20
-14.72715985022372
 30
0.0
 10
-14.36202152559239
 20
-14.94373449751934
 30
0.0
 10
-14.27061248662092
 20
-15.03406901902895
 30
0.0
 10
-14.17472082871532
 20
-15.11889010688634
 30
0.0
 10
-14.06083812877069
 20
-15.18101545732791
 30
0.0
 10
-13.94958139369309
 20
-15.24170811782031
 30
0.0
 10
-13.83567209207835
 20
-15.25594571170508
 30
0.0
 10
-13.71826799604847
 20
-15.20132345733349
 30
0.0
  0
SPLINE
  5
F6
330
1F
100
AcDbEntity
  8
0
  6
Continuous
 62
     7
370
    15
100
AcDbSpline
210
0.0
220
0.0
230
1.0
 70
     8
 71
     3
 72
     8
 73
     4
 74
     0
 42
0.00000001
 43
0.00000001
 40
4.0
 40
4.0
 40
4.0
 40
4.0
 40
5.0
 40
5.0
 40
5.0
 40
5.0
 10
-13.71826799604847
 20
-15.20132345733349
 30
0.0
 10
-13.68523869735636
 20
-15.18595766761676
 30
0.0
 10
-13.65326158972436
 20
-15.16740110257227
 30
0.0
 10
-13.62314422385334
 20
-15.14687173866873
 30
0.0
  0
SPLINE
  5
F7
330
1F
100
AcDbEntity
  8
0
  6
Continuous
 62
     7
370
    15
100
AcDbSpline
210
0.0
220
0.0
230
1.0
 70
     8
 71
     3
 72
     8
 73
     4
 74
     0
 42
0.00000001
 43
0.00000001
 40
5.0
 40
5.0
 40
5.0
 40
5.0
 40
6.0
 40
6.0
 40
6.0
 40
6.0
 10
-13.62314422385334
 20
-15.14687173866873
 30
0.0
 10
-13.5082146769341
 20
-15.06853278903208
 30
0.0
 10
-13.40665710080282
 20
-14.97456333930926
 30
0.0
 10
-13.31507182576664
 20
-14.87045722817227
 30
0.0
  0
SPLINE
  5
F8
330
1F
100
AcDbEntity
  8
0
  6
Continuous
 62
     7
370
    15
100
AcDbSpline
210
0.0
220
0.0
230
1.0
 70
     8
 71
     3
 72
     8
 73
     4
 74
     0
 42
0.00000001
 43
0.00000001
 40
6.0
 40
6.0
 40
6.0
 40
6.0
 40
7.0
 40
7.0
 40
7.0
 40
7.0
 10
-13.31507182576664
 20
-14.87045722817227
 30
0.0
 10
-13.26139072423386
 20
-14.80943786591842
 30
0.0
 10
-13.21028547192167
 20
-14.74554956104255
 30
0.0
 10
-13.16386068846532
 20
-14.67888565690512
 30
0.0
  0
SPLINE
  5
F9
330
1F
100
AcDbEntity
  8
0
  6
Continuous
 62
     7
370
    15
100
AcDbSpline
210
0.0
220
0.0
230
1.0
 70
     8
 71
     3
 72
    20
 73
    16
 74
     0
 42
0.00000001
 43
0.00000001
 40
7.0
 40
7.0
 40
7.0
 40
7.0
 40
8.0
 40
8.0
 40
8.0
 40
9.0
 40
9.0
 40
9.0
 40
10.0
 40
10.0
 40
10.0
 40
11.0
 40
11.0
 40
11.0
 40
12.0
 40
12.0
 40
12.0
 40
12.0
 10
-13.16386068846532
 20
-14.67888565690512
 30
0.0
 10
-13.087214388849
 20
-14.56882385934978
 30
0.0
 10
-13.06595442907615
 20
-14.44936383424166
 30
0.0
 10
-13.1206712143827
 20
-14.32220690089537
 30
0.0
 10
-13.13041882637105
 20
-14.2995546287084
 30
0.0
 10
-13.14094750614751
 20
-14.27716469174172
 30
0.0
 10
-13.15243455859388
 20
-14.25534740322787
 30
0.0
 10
-13.21698054226106
 20
-14.13275633779232
 30
0.0
 10
-13.31282493469914
 20
-14.03477336108662
 30
0.0
 10
-13.40880886714806
 20
-13.93802819334475
 30
0.0
 10
-13.74989441291285
 20
-13.59423759024722
 30
0.0
 10
-14.09296748346125
 20
-13.25241836091925
 30
0.0
 10
-14.43528786925353
 20
-12.90985309725271
 30
0.0
 10
-14.44221796059831
 20
-12.90291801809478
 30
0.0
 10
-14.44915268348389
 20
-12.89598757047761
 30
0.0
 10
-14.45690232003252
 20
-12.88823793392898
 30
0.0
  0
SPLINE
  5
103
330
1F
100
AcDbEntity
  8
0
  6
Continuous
 62
     7
370
    15
100
AcDbSpline
210
0.0
220
0.0
230
1.0
 70
     8
 71
     3
 72
    11
 73
     7
 74
     0
 42
0.00000001
 43
0.00000001
 40
16.0
 40
16.0
 40
16.0
 40
16.0
 40
17.0
 40
17.0
 40
17.0
 40
18.0
 40
18.0
 40
18.0
 40
18.0
 10
-11.09895259648708
 20
-18.82579151380962
 30
0.0
 10
-11.18901682602683
 20
-18.76546700143082
 30
0.0
 10
-11.2705564078601
 20
-18.69200815193348
 30
0.0
 10
-11.35346930091451
 20
-18.62154531553611
 30
0.0
 10
-11.4161848759124
 20
-18.5682472067989
 30
0.0
 10
-11.47509023669202
 20
-18.5104662416127
 30
0.0
 10
-11.5356919289731
 20
-18.45467992665743
 30
0.0
  0
SPLINE
  5
104
330
1F
100
AcDbEntity
  8
0
  6
Continuous
 62
     7
370
    15
100
AcDbSpline
210
0.0
220
0.0
230
1.0
 70
     8
 71
     3
 72
     8
 73
     4
 74
     0
 42
0.00000001
 43
0.00000001
 40
15.0
 40
15.0
 40
15.0
 40
15.0
 40
16.0
 40
16.0
 40
16.0
 40
16.0
 10
-10.72221285598022
 20
-18.86733073428367
 30
0.0
 10
-10.85370039871696
 20
-18.9258878982023
 30
0.0
 10
-10.98349731031012
 20
-18.90312233140229
 30
0.0
 10
-11.09895259648708
 20
-18.82579151380962
 30
0.0
  0
SPLINE
  5
105
330
1F
100
AcDbEntity
  8
0
  6
Continuous
 62
     7
370
    15
100
AcDbSpline
210
0.0
220
0.0
230
1.0
 70
     8
 71
     3
 72
     8
 73
     4
 74
     0
 42
0.00000001
 43
0.00000001
 40
14.0
 40
14.0
 40
14.0
 40
14.0
 40
15.0
 40
15.0
 40
15.0
 40
15.0
 10
-10.55289275048604
 20
-18.76175963116946
 30
0.0
 10
-10.60390216553126
 20
-18.803764380871
 30
0.0
 10
-10.66191185757772
 20
-18.84047753584822
 30
0.0
 10
-10.72221285598022
 20
-18.86733073428367
 30
0.0
  0
SPLINE
  5
106
330
1F
100
AcDbEntity
  8
0
  6
Continuous
 62
     7
370
    15
100
AcDbSpline
210
0.0
220
0.0
230
1.0
 70
     8
 71
     3
 72
     8
 73
     4
 74
     0
 42
0.00000001
 43
0.00000001
 40
13.0
 40
13.0
 40
13.0
 40
13.0
 40
14.0
 40
14.0
 40
14.0
 40
14.0
 10
-10.25931386860175
 20
-18.50086280117594
 30
0.0
 10
-10.35397472423338
 20
-18.59123318743724
 30
0.0
 10
-10.45188502137603
 20
-18.67858452165216
 30
0.0
 10
-10.55289275048604
 20
-18.76175963116946
 30
0.0
  0
SPLINE
  5
107
330
1F
100
AcDbEntity
  8
0
  6
Continuous
 62
     7
370
    15
100
AcDbSpline
210
0.0
220
0.0
230
1.0
 70
     8
 71
     3
 72
     8
 73
     4
 74
     0
 42
0.00000001
 43
0.00000001
 40
12.0
 40
12.0
 40
12.0
 40
12.0
 40
13.0
 40
13.0
 40
13.0
 40
13.0
 10
-9.861633863393608
 20
-18.06449256686314
 30
0.0
 10
-9.979753591853338
 20
-18.22305253429912
 30
0.0
 10
-10.11676026860018
 20
-18.36476770666138
 30
0.0
 10
-10.25931386860175
 20
-18.50086280117594
 30
0.0
  0
SPLINE
  5
108
330
1F
100
AcDbEntity
  8
0
  6
Continuous
 62
     7
370
    15
100
AcDbSpline
210
0.0
220
0.0
230
1.0
 70
     8
 71
     3
 72
     8
 73
     4
 74
     0
 42
0.00000001
 43
0.00000001
 40
11.0
 40
11.0
 40
11.0
 40
11.0
 40
12.0
 40
12.0
 40
12.0
 40
12.0
 10
-9.754829582856328
 20
-17.84412765660189
 30
0.0
 10
-9.769211704565015
 20
-17.92786413261367
 30
0.0
 10
-9.812074120613794
 20
-17.99796285865099
 30
0.0
 10
-9.861633863393608
 20
-18.06449256686314
 30
0.0
  0
SPLINE
  5
109
330
1F
100
AcDbEntity
  8
0
  6
Continuous
 62
     7
370
    15
100
AcDbSpline
210
0.0
220
0.0
230
1.0
 70
     8
 71
     3
 72
    20
 73
    16
 74
     0
 42
0.00000001
 43
0.00000001
 40
6.0
 40
6.0
 40
6.0
 40
6.0
 40
7.0
 40
7.0
 40
7.0
 40
8.0
 40
8.0
 40
8.0
 40
9.0
 40
9.0
 40
9.0
 40
10.0
 40
10.0
 40
10.0
 40
11.0
 40
11.0
 40
11.0
 40
11.0
 10
-11.35562569880053
 20
-16.19948771299252
 30
0.0
 10
-11.24194761795261
 20
-16.19255453395388
 30
0.0
 10
-11.14083158204273
 20
-16.23105546367365
 30
0.0
 10
-11.05449123005071
 20
-16.29964703883689
 30
0.0
 10
-10.94706299783961
 20
-16.38499160956035
 30
0.0
 10
-10.84265797418586
 20
-16.47495358893048
 30
0.0
 10
-10.74365071442214
 20
-16.56991050689993
 30
0.0
 10
-10.55975906907697
 20
-16.74627957995233
 30
0.0
 10
-10.37886581198085
 20
-16.92588265604647
 30
0.0
 10
-10.20031041416351
 20
-17.10766398139856
 30
0.0
 10
-10.07649032781583
 20
-17.23372098318742
 30
0.0
 10
-9.952879017075826
 20
-17.36071830651285
 30
0.0
 10
-9.848587881822366
 20
-17.50415712459147
 30
0.0
 10
-9.775196961589888
 20
-17.60509644940683
 30
0.0
 10
-9.732850546687414
 20
-17.71613526455263
 30
0.0
 10
-9.754829582856328
 20
-17.84412765660189
 30
0.0
  0
SPLINE
  5
10A
330
1F
100
AcDbEntity
  8
0
  6
Continuous
 62
     7
370
    15
100
AcDbSpline
210
0.0
220
0.0
230
1.0
 70
     8
 71
     3
 72
    14
 73
    10
 74
     0
 42
0.00000001
 43
0.00000001
 40
3.0
 40
3.0
 40
3.0
 40
3.0
 40
4.0
 40
4.0
 40
4.0
 40
5.0
 40
5.0
 40
5.0
 40
6.0
 40
6.0
 40
6.0
 40
6.0
 10
-12.35042721833552
 20
-17.05119694870551
 30
0.0
 10
-12.22764554718315
 20
-16.88331784618243
 30
0.0
 10
-12.08432904928419
 20
-16.73375185591902
 30
0.0
 10
-11.93446295892949
 20
-16.59076989777367
 30
0.0
 10
-11.83386755570672
 20
-16.49479558467871
 30
0.0
 10
-11.72797390734204
 20
-16.40405348758011
 30
0.0
 10
-11.62072321752764
 20
-16.31548477068374
 30
0.0
 10
-11.54443117140258
 20
-16.25248215891474
 30
0.0
 10
-11.45804747293912
 20
-16.20573494896531
 30
0.0
 10
-11.35562569880053
 20
-16.19948771299252
 30
0.0
  0
SPLINE
  5
10B
330
1F
100
AcDbEntity
  8
0
  6
Continuous
 62
     7
370
    15
100
AcDbSpline
210
0.0
220
0.0
230
1.0
 70
     8
 71
     3
 72
     8
 73
     4
 74
     0
 42
0.00000001
 43
0.00000001
 40
2.0
 40
2.0
 40
2.0
 40
2.0
 40
3.0
 40
3.0
 40
3.0
 40
3.0
 10
-12.36004918493544
 20
-17.57486198868418
 30
0.0
 10
-12.48596914062007
 20
-17.3983475565056
 30
0.0
 10
-12.47827318244155
 20
-17.22600246109227
 30
0.0
 10
-12.35042721833552
 20
-17.05119694870551
 30
0.0
  0
SPLINE
  5
10C
330
1F
100
AcDbEntity
  8
0
  6
Continuous
 62
     7
370
    15
100
AcDbSpline
210
0.0
220
0.0
230
1.0
 70
     8
 71
     3
 72
    11
 73
     7
 74
     0
 42
0.00000001
 43
0.00000001
 40
0.0
 40
0.0
 40
0.0
 40
0.0
 40
1.0
 40
1.0
 40
1.0
 40
2.0
 40
2.0
 40
2.0
 40
2.0
 10
-12.0065566914701
 20
-17.98381516416043
 30
0.0
 10
-12.04639768032337
 20
-17.94090405755468
 30
0.0
 10
-12.08761601815134
 20
-17.8991783878747
 30
0.0
 10
-12.12579274001624
 20
-17.85483482883469
 30
0.0
 10
-12.20521060114062
 20
-17.76258831228354
 30
0.0
 10
-12.28958634853805
 20
-17.67363707762139
 30
0.0
 10
-12.36004918493544
 20
-17.57486198868418
 30
0.0
  0
SPLINE
  5
10E
330
1F
100
AcDbEntity
  8
0
  6
Continuous
 62
     7
370
    15
100
AcDbSpline
210
0.0
220
0.0
230
1.0
 70
     8
 71
     3
 72
     8
 73
     4
 74
     0
 42
0.00000001
 43
0.00000001
 40
0.0
 40
0.0
 40
0.0
 40
0.0
 40
1.0
 40
1.0
 40
1.0
 40
1.0
 10
-9.44928042443721
 20
-19.92209004317331
 30
0.0
 10
-9.444045120746962
 20
-20.11699430492815
 30
0.0
 10
-9.43916347676072
 20
-20.31011649229827
 30
0.0
 10
-9.432916834575202
 20
-20.5031942643798
 30
0.0
  0
SPLINE
  5
10F
330
1F
100
AcDbEntity
  8
0
  6
Continuous
 62
     7
370
    15
100
AcDbSpline
210
0.0
220
0.0
230
1.0
 70
     8
 71
     3
 72
    14
 73
    10
 74
     0
 42
0.00000001
 43
0.00000001
 40
1.0
 40
1.0
 40
1.0
 40
1.0
 40
2.0
 40
2.0
 40
2.0
 40
3.0
 40
3.0
 40
3.0
 40
4.0
 40
4.0
 40
4.0
 40
4.0
 10
-9.432916834575202
 20
-20.5031942643798
 30
0.0
 10
-9.432538948350212
 20
-20.51482893234398
 30
0.0
 10
-9.423536420640794
 20
-20.528369419962
 30
0.0
 10
-9.414728655159198
 20
-20.53722326333653
 30
0.0
 10
-9.242163620937353
 20
-20.71068895410471
 30
0.0
 10
-9.069042801821416
 20
-20.88359885997879
 30
0.0
 10
-8.895974235986094
 20
-21.05656291925281
 30
0.0
 10
-8.889863452330241
 20
-21.0626699026701
 30
0.0
 10
-8.88313037960494
 20
-21.0681564971372
 30
0.0
 10
-8.872566666378985
 20
-21.07762574164871
 30
0.0
  0
SPLINE
  5
11F
330
1F
100
AcDbEntity
  8
0
  6
Continuous
 62
     7
370
    15
100
AcDbSpline
210
0.0
220
0.0
230
1.0
 70
     8
 71
     3
 72
     9
 73
     5
 74
     0
 42
0.00000001
 43
0.00000001
 40
0.0
 40
0.0
 40
0.0
 40
0.0
 40
0.5071039239510353
 40
1.0
 40
1.0
 40
1.0
 40
1.0
 10
19.68986369956484
 20
-7.368314846365307
 30
0.0
 10
19.65617780139962
 20
-7.353571078226558
 30
0.0
 10
19.58974980395336
 20
-7.324496627325304
 30
0.0
 10
19.52333152708949
 20
-7.295399977422216
 30
0.0
 10
19.49059421904536
 20
-7.281058352858815
 30
0.0
  0
SPLINE
  5
120
330
1F
100
AcDbEntity
  8
0
  6
Continuous
 62
     7
370
    15
100
AcDbSpline
210
0.0
220
0.0
230
1.0
 70
     8
 71
     3
 72
    23
 73
    19
 74
     0
 42
0.00000001
 43
0.00000001
 40
0.0
 40
0.0
 40
0.0
 40
0.0
 40
0.0606051026776561
 40
0.1197224060027158
 40
0.179171739883155
 40
0.2382672055371268
 40
0.2971917857901081
 40
0.3552682877153546
 40
0.4135167781294348
 40
0.4726054178560783
 40
0.5323376874632624
 40
0.5926759823180083
 40
0.6548734618231352
 40
0.7189454288981793
 40
0.7851573466632723
 40
0.8537404275127458
 40
0.9247836446448304
 40
1.0
 40
1.0
 40
1.0
 40
1.0
 10
16.90957960987084
 20
-11.74718354452563
 30
0.0
 10
16.89274900031759
 20
-11.73561024614377
 30
0.0
 10
16.85950095714662
 20
-11.71274776317704
 30
0.0
 10
16.80597906918156
 20
-11.68457628957444
 30
0.0
 10
16.75052885111834
 20
-11.66186632921388
 30
0.0
 10
16.69314137389374
 20
-11.64481737901221
 30
0.0
 10
16.63484522533142
 20
-11.63338452052177
 30
0.0
 10
16.57596018251159
 20
-11.6280857871351
 30
0.0
 10
16.51676436516346
 20
-11.62878286120274
 30
0.0
 10
16.45750228358985
 20
-11.63631474653135
 30
0.0
 10
16.39850027636171
 20
-11.64949858489277
 30
0.0
 10
16.34048513017965
 20
-11.66989541394001
 30
0.0
 10
16.28310408899335
 20
-11.69574990553473
 30
0.0
 10
16.22701603167829
 20
-11.72846728845069
 30
0.0
 10
16.17239751614275
 20
-11.76742645998637
 30
0.0
 10
16.12051863945366
 20
-11.8135717701821
 30
0.0
 10
16.07081812814913
 20
-11.86633861816807
 30
0.0
 10
16.04099042048187
 20
-11.90557633919411
 30
0.0
 10
16.02565103844227
 20
-11.92575497309706
 30
0.0
  0
SPLINE
  5
121
330
1F
100
AcDbEntity
  8
0
  6
Continuous
 62
     7
370
    15
100
AcDbSpline
210
0.0
220
0.0
230
1.0
 70
     8
 71
     3
 72
     9
 73
     5
 74
     0
 42
0.00000001
 43
0.00000001
 40
0.0
 40
0.0
 40
0.0
 40
0.0
 40
0.4991655860773636
 40
1.0
 40
1.0
 40
1.0
 40
1.0
 10
19.89400330995445
 20
-7.457600560651022
 30
0.0
 10
19.86005309501016
 20
-7.442707232770424
 30
0.0
 10
19.79203916157561
 20
-7.412870785114577
 30
0.0
 10
19.72396005766986
 20
-7.383183340359885
 30
0.0
 10
19.68986369956484
 20
-7.368314846365307
 30
0.0
  0
SPLINE
  5
122
330
1F
100
AcDbEntity
  8
0
  6
Continuous
 62
     7
370
    15
100
AcDbSpline
210
0.0
220
0.0
230
1.0
 70
     8
 71
     3
 72
    23
 73
    19
 74
     0
 42
0.00000001
 43
0.00000001
 40
0.0
 40
0.0
 40
0.0
 40
0.0
 40
0.0603902747799697
 40
0.1199020987567219
 40
0.178799662420375
 40
0.2381520927062281
 40
0.2971545181799506
 40
0.355348634298043
 40
0.4135330929010376
 40
0.4727080662771942
 40
0.5322401215906603
 40
0.5927578806003561
 40
0.6548858882426913
 40
0.7188626346461917
 40
0.7848859173336263
 40
0.853603473678225
 40
0.9249822203151873
 40
1.0
 40
1.0
 40
1.0
 40
1.0
 10
12.68548747489814
 20
-16.23361448345285
 30
0.0
 10
12.67288907337021
 20
-16.2175772089984
 30
0.0
 10
12.6478755295557
 20
-16.18573594196604
 30
0.0
 10
12.60610745827942
 20
-16.141945779527
 30
0.0
 10
12.55962740576073
 20
-16.10381839454318
 30
0.0
 10
12.51040202595271
 20
-16.06966782095892
 30
0.0
 10
12.45812224231205
 20
-16.0407821337252
 30
0.0
 10
12.40335535317869
 20
-16.01799354775449
 30
0.0
 10
12.34652928385195
 20
-16.0007969307879
 30
0.0
 10
12.28778428241776
 20
-15.98950027334261
 30
0.0
 10
12.22739760182174
 20
-15.98407417572173
 30
0.0
 10
12.16580335393986
 20
-15.98555560680861
 30
0.0
 10
12.10311271321413
 20
-15.99277829850735
 30
0.0
 10
12.03969655465835
 20
-16.0068289404112
 30
0.0
 10
11.97555103614566
 20
-16.02691573716491
 30
0.0
 10
11.9119650262457
 20
-16.05544785848808
 30
0.0
 10
11.84802990333765
 20
-16.09017279205632
 30
0.0
 10
11.80764360940825
 20
-16.11873492215202
 30
0.0
 10
11.78694851385918
 20
-16.13337097695934
 30
0.0
  0
SPLINE
  5
123
330
1F
100
AcDbEntity
  8
0
  6
Continuous
 62
     7
370
    15
100
AcDbSpline
210
0.0
220
0.0
230
1.0
 70
     8
 71
     3
 72
    15
 73
    11
 74
     0
 42
0.00000001
 43
0.00000001
 40
0.0
 40
0.0
 40
0.0
 40
0.0
 40
0.1339232396994694
 40
0.2650210645044515
 40
0.3918854176454797
 40
0.5175394007201225
 40
0.6408570908407654
 40
0.7609354413852908
 40
0.8801412764617287
 40
1.0
 40
1.0
 40
1.0
 40
1.0
 10
20.31567538787652
 20
-8.43487328792375
 30
0.0
 10
20.32540146883519
 20
-8.411207728691373
 30
0.0
 10
20.34464843698581
 20
-8.364375888945471
 30
0.0
 10
20.36630484361882
 20
-8.292624917848658
 30
0.0
 10
20.38206553217561
 20
-8.221008949470178
 30
0.0
 10
20.39102627840301
 20
-8.149693109429844
 30
0.0
 10
20.39320785254152
 20
-8.079136583608351
 30
0.0
 10
20.388079986971
 20
-8.00995703613869
 30
0.0
 10
20.37483851660133
 20
-7.942414178857904
 30
0.0
 10
20.35976080594431
 20
-7.899276837135465
 30
0.0
 10
20.35220136190249
 20
-7.877649261949723
 30
0.0
  0
SPLINE
  5
124
330
1F
100
AcDbEntity
  8
0
  6
Continuous
 62
     7
370
    15
100
AcDbSpline
210
0.0
220
0.0
230
1.0
 70
     8
 71
     3
 72
    23
 73
    19
 74
     0
 42
0.00000001
 43
0.00000001
 40
0.0
 40
0.0
 40
0.0
 40
0.0
 40
0.0752873699783881
 40
0.1469808533969643
 40
0.2156808869121768
 40
0.2817867219836334
 40
0.3463323750424143
 40
0.4082910904543052
 40
0.4689917419211052
 40
0.5287244635260009
 40
0.5878246495901978
 40
0.6460930946879739
 40
0.7041891030198792
 40
0.7627302143007968
 40
0.8218236635352528
 40
0.8805169145859879
 40
0.9397893027865127
 40
1.0
 40
1.0
 40
1.0
 40
1.0
 10
12.50529266970333
 20
-17.12363071721909
 30
0.0
 10
12.52565742138167
 20
-17.10820860463859
 30
0.0
 10
12.56541480142774
 20
-17.07810056302527
 30
0.0
 10
12.61799833486812
 20
-17.02711096393215
 30
0.0
 10
12.66489825717201
 20
-16.97501494552383
 30
0.0
 10
12.7038893787907
 20
-16.91964262892055
 30
0.0
 10
12.73666766927248
 20
-16.86309161676252
 30
0.0
 10
12.76346740552174
 20
-16.80545107890092
 30
0.0
 10
12.78346107194351
 20
-16.74680684891392
 30
0.0
 10
12.79678642369606
 20
-16.68732137261322
 30
0.0
 10
12.80429069467151
 20
-16.62764265656327
 30
0.0
 10
12.80498250707676
 20
-16.56804929125253
 30
0.0
 10
12.79974218811058
 20
-16.5088816410808
 30
0.0
 10
12.78817640604507
 20
-16.4503485835205
 30
0.0
 10
12.77137585946983
 20
-16.39287882980215
 30
0.0
 10
12.74836126716956
 20
-16.33733770492023
 30
0.0
 10
12.71998528226892
 20
-16.28386872705933
 30
0.0
 10
12.69704678988255
 20
-16.25045336903497
 30
0.0
 10
12.68548747489814
 20
-16.23361448345285
 30
0.0
  0
SPLINE
  5
125
330
1F
100
AcDbEntity
  8
0
  6
Continuous
 62
     7
370
    15
100
AcDbSpline
210
0.0
220
0.0
230
1.0
 70
     8
 71
     3
 72
    17
 73
    13
 74
     0
 42
0.00000001
 43
0.00000001
 40
0.0
 40
0.0
 40
0.0
 40
0.0
 40
0.0907044833108633
 40
0.1779106439291065
 40
0.2615565294360209
 40
0.3431730329499886
 40
0.4239879562921283
 40
0.5044504600544738
 40
0.5853625901494169
 40
0.6670778133892373
 40
0.8316058673783383
 40
1.0
 40
1.0
 40
1.0
 40
1.0
 10
20.35220136190249
 20
-7.877649261949723
 30
0.0
 10
20.34477901695665
 20
-7.859797015478304
 30
0.0
 10
20.33022059469816
 20
-7.824781054311033
 30
0.0
 10
20.30391886562675
 20
-7.775514479230062
 30
0.0
 10
20.27358236783785
 20
-7.730980968546909
 30
0.0
 10
20.24004622163422
 20
-7.69057705335119
 30
0.0
 10
20.20362538264353
 20
-7.65374911191897
 30
0.0
 10
20.16542039310783
 20
-7.619022231999227
 30
0.0
 10
20.12474595559872
 20
-7.586866700057835
 30
0.0
 10
20.06709977975261
 20
-7.547636306111996
 30
0.0
 10
19.99115747698407
 20
-7.502156858104397
 30
0.0
 10
19.92663777857215
 20
-7.472567197033381
 30
0.0
 10
19.89400330995445
 20
-7.457600560651022
 30
0.0
  0
SPLINE
  5
126
330
1F
100
AcDbEntity
  8
0
  6
Continuous
 62
     7
370
    15
100
AcDbSpline
210
0.0
220
0.0
230
1.0
 70
     8
 71
     3
 72
    15
 73
    11
 74
     0
 42
0.00000001
 43
0.00000001
 40
0.0
 40
0.0
 40
0.0
 40
0.0
 40
0.1200868937168985
 40
0.2386207429708274
 40
0.3591744323287148
 40
0.4823595617778781
 40
0.6075736048665296
 40
0.7352622692812002
 40
0.8657037596434273
 40
1.0
 40
1.0
 40
1.0
 40
1.0
 10
18.88142214112327
 20
-7.235197963248424
 30
0.0
 10
18.86034099383696
 20
-7.24430729546247
 30
0.0
 10
18.81845133483723
 20
-7.262408151880726
 30
0.0
 10
18.75981702740376
 20
-7.298490963791313
 30
0.0
 10
18.7052367138469
 20
-7.341254887150111
 30
0.0
 10
18.65503419439865
 20
-7.390937676294906
 30
0.0
 10
18.60920682592058
 20
-7.446404737951559
 30
0.0
 10
18.5675031613228
 20
-7.506670656006753
 30
0.0
 10
18.52924531856335
 20
-7.571283338049285
 30
0.0
 10
18.50817972878616
 20
-7.617295308109849
 30
0.0
 10
18.4974935696947
 20
-7.640636274936736
 30
0.0
  0
SPLINE
  5
127
330
1F
100
AcDbEntity
  8
0
  6
Continuous
 62
     7
370
    15
100
AcDbSpline
210
0.0
220
0.0
230
1.0
 70
     8
 71
     3
 72
    17
 73
    13
 74
     0
 42
0.00000001
 43
0.00000001
 40
0.0
 40
0.0
 40
0.0
 40
0.0
 40
0.1692774086275062
 40
0.3335161424238614
 40
0.4140467786457257
 40
0.4937581073120484
 40
0.5740710787609514
 40
0.654134565874882
 40
0.7356426138485832
 40
0.8201260606142096
 40
0.9075003198057182
 40
1.0
 40
1.0
 40
1.0
 40
1.0
 10
19.49059421904536
 20
-7.281058352858814
 30
0.0
 10
19.45780881837007
 20
-7.267474621861465
 30
0.0
 10
19.39321390018401
 20
-7.240711490273548
 30
0.0
 10
19.30979421073656
 20
-7.216113124204385
 30
0.0
 10
19.24328049647984
 20
-7.201948706407529
 30
0.0
 10
19.19347538957399
 20
-7.19389462336337
 30
0.0
 10
19.14326114892933
 20
-7.190081472904682
 30
0.0
 10
19.09256679256617
 20
-7.189112137912127
 30
0.0
 10
19.04098226865297
 20
-7.192005351130693
 30
0.0
 10
18.98865341224935
 20
-7.201440330204693
 30
0.0
 10
18.93485783120698
 20
-7.215015068076665
 30
0.0
 10
18.89956921517297
 20
-7.228343733563257
 30
0.0
 10
18.88142214112328
 20
-7.235197963248425
 30
0.0
  0
SPLINE
  5
128
330
1F
100
AcDbEntity
  8
0
  6
Continuous
 62
     7
370
    15
100
AcDbSpline
210
0.0
220
0.0
230
1.0
 70
     8
 71
     3
 72
    23
 73
    19
 74
     0
 42
0.00000001
 43
0.00000001
 40
0.0
 40
0.0
 40
0.0
 40
0.0
 40
0.0750622766951165
 40
0.1467305351042849
 40
0.2153890215352101
 40
0.2817371395039976
 40
0.3460501211614947
 40
0.4081724744853363
 40
0.4690319061521145
 40
0.5285127874489921
 40
0.5876368937577654
 40
0.6457713367442338
 40
0.7039154289441582
 40
0.7628671356734338
 40
0.8219424239044546
 40
0.8807403107592651
 40
0.9399131948705206
 40
1.0
 40
1.0
 40
1.0
 40
1.0
 10
17.00982311636434
 20
-12.64694003803213
 30
0.0
 10
17.02430228575141
 20
-12.62609256249926
 30
0.0
 10
17.05260593394287
 20
-12.58534025154903
 30
0.0
 10
17.08725577216343
 20
-12.52120408681122
 30
0.0
 10
17.11595018088488
 20
-12.45742079433287
 30
0.0
 10
17.13600723247895
 20
-12.39297052455782
 30
0.0
 10
17.14978134071041
 20
-12.32924580387034
 30
0.0
 10
17.15795216071381
 20
-12.26636600091237
 30
0.0
 10
17.15853604964862
 20
-12.20458730572388
 30
0.0
 10
17.15333735837491
 20
-12.14407747530246
 30
0.0
 10
17.14198099655497
 20
-12.08532744990723
 30
0.0
 10
17.12478782448177
 20
-12.02851184221786
 30
0.0
 10
17.10204414182818
 20
-11.97370799454227
 30
0.0
 10
17.07300985716535
 20
-11.9216345617765
 30
0.0
 10
17.03962145392772
 20
-11.87195785779874
 30
0.0
 10
17.00062391886857
 20
-11.82646149355988
 30
0.0
 10
16.95761426390625
 20
-11.78421090388693
 30
0.0
 10
16.92567275351785
 20
-11.75958889281089
 30
0.0
 10
16.90957960987084
 20
-11.74718354452563
 30
0.0
  0
SPLINE
  5
12C
330
1F
100
AcDbEntity
  8
0
  6
Continuous
 62
     7
370
    15
100
AcDbSpline
210
0.0
220
0.0
230
1.0
 70
     8
 71
     3
 72
    14
 73
    10
 74
     0
 42
0.00000001
 43
0.00000001
 40
0.0
 40
0.0
 40
0.0
 40
0.0
 40
0.2499999999999999
 40
0.2499999999999999
 40
0.4999999999999999
 40
0.4999999999999999
 40
0.7499999999999999
 40
0.7499999999999999
 40
1.0
 40
1.0
 40
1.0
 40
1.0
 10
-21.10000000000001
 20
0.2165063509461141
 30
0.0
 10
-21.06864556645318
 20
0.1984038602975581
 30
0.0
 10
-21.03936734802847
 20
0.1728924743698615
 30
0.0
 10
-20.99224833707024
 20
0.1008858393192289
 30
0.0
 10
-20.97506402104004
 20
0.0517848376450352
 30
0.0
 10
-20.97493636336004
 20
-0.051164837720849
 30
0.0
 10
-20.99204405367858
 20
-0.1004950387360605
 30
0.0
 10
-21.03929991553332
 20
-0.1728675920065373
 30
0.0
 10
-21.06861408491866
 20
-0.1983856844278838
 30
0.0
 10
-21.09999999999926
 20
-0.2165063509483554
 30
0.0
  0
SPLINE
  5
12E
330
1F
100
AcDbEntity
  8
0
  6
Continuous
 62
     7
370
    15
100
AcDbSpline
210
0.0
220
0.0
230
1.0
 70
    24
 71
     3
 72
     8
 73
     4
 74
     0
 42
0.00000001
 43
0.00000001
 40
0.0
 40
0.0
 40
0.0
 40
0.0
 40
1.0
 40
1.0
 40
1.0
 40
1.0
 10
-21.09999999999688
 20
0.2165063509443036
 30
0.0
 10
-21.29069632728807
 20
0.3266049268393464
 30
0.0
 10
-21.47960914236413
 20
0.4356737914768758
 30
0.0
 10
-21.66739387604386
 20
0.544091358016572
 30
0.0
  0
SPLINE
  5
12F
330
1F
100
AcDbEntity
  8
0
  6
Continuous
 62
     7
370
    15
100
AcDbSpline
210
0.0
220
0.0
230
1.0
 70
    24
 71
     3
 72
     8
 73
     4
 74
     0
 42
0.00000001
 43
0.00000001
 40
0.0
 40
0.0
 40
0.0
 40
0.0
 40
1.0
 40
1.0
 40
1.0
 40
1.0
 10
-21.66739387604386
 20
-0.5440913580165649
 30
0.0
 10
-21.47960914236516
 20
-0.4356737914774633
 30
0.0
 10
-21.29069632729014
 20
-0.3266049268405348
 30
0.0
 10
-21.10000000000001
 20
-0.2165063509461068
 30
0.0
  0
SPLINE
  5
130
330
1F
100
AcDbEntity
  8
0
  6
Continuous
 62
     7
370
    15
100
AcDbSpline
210
0.0
220
0.0
230
1.0
 70
     8
 71
     3
 72
    17
 73
    13
 74
     0
 42
0.00000001
 43
0.00000001
 40
5.0
 40
5.0
 40
5.0
 40
5.0
 40
6.0
 40
6.0
 40
6.0
 40
7.0
 40
7.0
 40
7.0
 40
8.0
 40
8.0
 40
8.0
 40
9.0
 40
9.0
 40
9.0
 40
9.0
 10
-16.00573860501119
 20
-12.14866839497892
 30
0.0
 10
-15.96858699750646
 20
-12.09221347554637
 30
0.0
 10
-15.9690953981756
 20
-12.04369689826007
 30
0.0
 10
-16.01308684135856
 20
-11.99221304717816
 30
0.0
 10
-16.06417261744796
 20
-11.93242686234741
 30
0.0
 10
-16.11929816591804
 20
-11.87592325235789
 30
0.0
 10
-16.1747782053943
 20
-11.82009050323734
 30
0.0
 10
-16.35828590788424
 20
-11.63541588998476
 30
0.0
 10
-16.54272846906778
 20
-11.45167186015737
 30
0.0
 10
-16.72688886253589
 20
-11.26764708770403
 30
0.0
 10
-16.73371919761762
 20
-11.26082174043541
 30
0.0
 10
-16.74134687025897
 20
-11.25479515581588
 30
0.0
 10
-16.74903166523662
 20
-11.24801814283185
 30
0.0
  0
SPLINE
  5
131
330
1F
100
AcDbEntity
  8
0
  6
Continuous
 62
     7
370
    15
100
AcDbSpline
210
0.0
220
0.0
230
1.0
 70
     8
 71
     3
 72
     8
 73
     4
 74
     0
 42
0.00000001
 43
0.00000001
 40
4.0
 40
4.0
 40
4.0
 40
4.0
 40
5.0
 40
5.0
 40
5.0
 40
5.0
 10
-16.17130775625766
 20
-12.31091328751708
 30
0.0
 10
-16.10464753360134
 20
-12.26897266684176
 30
0.0
 10
-16.04905004300112
 20
-12.21448199573142
 30
0.0
 10
-16.00573860501119
 20
-12.14866839497892
 30
0.0
  0
SPLINE
  5
132
330
1F
100
AcDbEntity
  8
0
  6
Continuous
 62
     7
370
    15
100
AcDbSpline
210
0.0
220
0.0
230
1.0
 70
     8
 71
     3
 72
    17
 73
    13
 74
     0
 42
0.00000001
 43
0.00000001
 40
0.0
 40
0.0
 40
0.0
 40
0.0
 40
1.0
 40
1.0
 40
1.0
 40
2.0
 40
2.0
 40
2.0
 40
3.0
 40
3.0
 40
3.0
 40
4.0
 40
4.0
 40
4.0
 40
4.0
 10
-17.06942396180861
 20
-11.56841043940385
 30
0.0
 10
-17.0613382416595
 20
-11.57649615955296
 30
0.0
 10
-17.05438261746168
 20
-11.58345178375079
 30
0.0
 10
-17.04742723077874
 20
-11.59040717043371
 30
0.0
 10
-16.8542597968179
 20
-11.78357436687964
 30
0.0
 10
-16.66134365363394
 20
-11.97699380416213
 30
0.0
 10
-16.46773277933241
 20
-12.1697161351779
 30
0.0
 10
-16.42426565031766
 20
-12.21298375166654
 30
0.0
 10
-16.3790292727235
 20
-12.25454387345286
 30
0.0
 10
-16.33341536517667
 20
-12.29556590520603
 30
0.0
 10
-16.28450011911055
 20
-12.33955699211662
 30
0.0
 10
-16.22644126147729
 20
-12.34560245917166
 30
0.0
 10
-16.17130775625766
 20
-12.31091328751708
 30
0.0
  0
SPLINE
  5
138
330
1F
100
AcDbEntity
  8
0
  6
Continuous
 62
     7
370
    15
100
AcDbSpline
210
0.0
220
0.0
230
1.0
 70
     8
 71
     3
 72
    19
 73
    15
 74
     0
 42
0.00000001
 43
0.00000001
 40
0.0
 40
0.0
 40
0.0
 40
0.0
 40
0.1328327802938696
 40
0.2556074332249454
 40
0.3729841364877555
 40
0.4908320294524421
 40
0.5502479995473429
 40
0.6096324509035609
 40
0.6688653788539549
 40
0.7301611416134767
 40
0.7931619813259222
 40
0.8587086807956118
 40
0.927287219234081
 40
1.0
 40
1.0
 40
1.0
 40
1.0
 10
12.37461085152152
 20
-16.4629164315048
 30
0.0
 10
12.38605892260592
 20
-16.48027751184648
 30
0.0
 10
12.40808821431228
 20
-16.51368508770488
 30
0.0
 10
12.43009337465742
 20
-16.56828180211712
 30
0.0
 10
12.43849792201486
 20
-16.6240017093901
 30
0.0
 10
12.43645141639711
 20
-16.67040455710299
 30
0.0
 10
12.42821858404733
 20
-16.70653967505249
 30
0.0
 10
12.41938250298631
 20
-16.7329962496032
 30
0.0
 10
12.40726324977311
 20
-16.7584252101728
 30
0.0
 10
12.39285876493067
 20
-16.78330285618452
 30
0.0
 10
12.37466402289545
 20
-16.80683751206226
 30
0.0
 10
12.35387407101747
 20
-16.82960666930945
 30
0.0
 10
12.33024523243426
 20
-16.85176312906795
 30
0.0
 10
12.31264548559659
 20
-16.86512890735634
 30
0.0
 10
12.30358812424879
 20
-16.87200734059571
 30
0.0
  0
SPLINE
  5
139
330
1F
100
AcDbEntity
  8
0
  6
Continuous
 62
     7
370
    15
100
AcDbSpline
210
0.0
220
0.0
230
1.0
 70
     8
 71
     3
 72
    19
 73
    15
 74
     0
 42
0.00000001
 43
0.00000001
 40
0.0
 40
0.0
 40
0.0
 40
0.0
 40
0.1401082200393918
 40
0.2689132394964358
 40
0.38890918883847
 40
0.5079703124044808
 40
0.5677916899324227
 40
0.6266496569891852
 40
0.6852674638315603
 40
0.7446903598052262
 40
0.8050061372904332
 40
0.8679068766678648
 40
0.9319075263078727
 40
1.0
 40
1.0
 40
1.0
 40
1.0
 10
11.96146150087217
 20
-16.40447487306325
 30
0.0
 10
11.97971455060415
 20
-16.39208663955029
 30
0.0
 10
12.01474808919837
 20
-16.36830959060433
 30
0.0
 10
12.0720598618901
 20
-16.34597423930149
 30
0.0
 10
12.12915143794792
 20
-16.33468108609688
 30
0.0
 10
12.17645217320329
 20
-16.33767445540668
 30
0.0
 10
12.21305706174736
 20
-16.34508929223795
 30
0.0
 10
12.23964685667976
 20
-16.35360669226534
 30
0.0
 10
12.26486839825451
 20
-16.36529610465858
 30
0.0
 10
12.28952253719144
 20
-16.37874188601954
 30
0.0
 10
12.312158976526
 20
-16.39646162282733
 30
0.0
 10
12.33451571738127
 20
-16.41555863184664
 30
0.0
 10
12.35556250620635
 20
-16.43790102828311
 30
0.0
 10
12.36813161939127
 20
-16.45440752421531
 30
0.0
 10
12.37461085152152
 20
-16.4629164315048
 30
0.0
  0
SPLINE
  5
13A
330
1F
100
AcDbEntity
  8
0
  6
Continuous
 62
     7
370
    15
100
AcDbSpline
210
0.0
220
0.0
230
1.0
 70
     8
 71
     3
 72
     8
 73
     4
 74
     0
 42
0.00000001
 43
0.00000001
 40
7.0
 40
7.0
 40
7.0
 40
7.0
 40
8.0
 40
8.0
 40
8.0
 40
8.0
 10
-13.70137807314144
 20
-14.44737915963701
 30
0.0
 10
-13.67191541712534
 20
-14.39842983018104
 30
0.0
 10
-13.67322946837598
 20
-14.34638853160067
 30
0.0
 10
-13.71083983593319
 20
-14.30115179773412
 30
0.0
  0
SPLINE
  5
13B
330
1F
100
AcDbEntity
  8
0
  6
Continuous
 62
     7
370
    15
100
AcDbSpline
210
0.0
220
0.0
230
1.0
 70
     8
 71
     3
 72
    11
 73
     7
 74
     0
 42
0.00000001
 43
0.00000001
 40
5.0
 40
5.0
 40
5.0
 40
5.0
 40
6.0
 40
6.0
 40
6.0
 40
7.0
 40
7.0
 40
7.0
 40
7.0
 10
-14.02044586780668
 20
-14.62361783700276
 30
0.0
 10
-13.97702837940856
 20
-14.65296541704399
 30
0.0
 10
-13.92751554582384
 20
-14.6563177025119
 30
0.0
 10
-13.882484737386
 20
-14.62837371684308
 30
0.0
 10
-13.80845276440604
 20
-14.58243310753485
 30
0.0
 10
-13.74644118360733
 20
-14.5222484914392
 30
0.0
 10
-13.70137807314144
 20
-14.44737915963701
 30
0.0
  0
SPLINE
  5
13C
330
1F
100
AcDbEntity
  8
0
  6
Continuous
 62
     7
370
    15
100
AcDbSpline
210
0.0
220
0.0
230
1.0
 70
     8
 71
     3
 72
    14
 73
    10
 74
     0
 42
0.00000001
 43
0.00000001
 40
2.0
 40
2.0
 40
2.0
 40
2.0
 40
3.0
 40
3.0
 40
3.0
 40
4.0
 40
4.0
 40
4.0
 40
5.0
 40
5.0
 40
5.0
 40
5.0
 10
-14.69987841240095
 20
-13.91968467917631
 30
0.0
 10
-14.7191387341297
 20
-13.93853362507747
 30
0.0
 10
-14.71528802361895
 20
-13.94842647743452
 30
0.0
 10
-14.69852445864512
 20
-13.96510691218914
 30
0.0
 10
-14.50609593357551
 20
-14.15658133985729
 30
0.0
 10
-14.31470570494367
 20
-14.34910166444042
 30
0.0
 10
-14.12196591658187
 20
-14.54026197863745
 30
0.0
 10
-14.09097722725619
 20
-14.5709967645222
 30
0.0
 10
-14.0565934997784
 20
-14.59918396546089
 30
0.0
 10
-14.02044586780668
 20
-14.62361783700276
 30
0.0
  0
SPLINE
  5
13D
330
1F
100
AcDbEntity
  8
0
  6
Continuous
 62
     7
370
    15
100
AcDbSpline
210
0.0
220
0.0
230
1.0
 70
     8
 71
     3
 72
    11
 73
     7
 74
     0
 42
0.00000001
 43
0.00000001
 40
0.0
 40
0.0
 40
0.0
 40
0.0
 40
1.0
 40
1.0
 40
1.0
 40
2.0
 40
2.0
 40
2.0
 40
2.0
 10
-14.38683043318029
 20
-13.60759436008083
 30
0.0
 10
-14.39675297490132
 20
-13.61751690180185
 30
0.0
 10
-14.4031414134893
 20
-13.62390534038983
 30
0.0
 10
-14.40952985207728
 20
-13.63029377897781
 30
0.0
 10
-14.50615436224384
 20
-13.72691923920403
 30
0.0
 10
-14.6022234437887
 20
-13.82411224131243
 30
0.0
 10
-14.69987841240095
 20
-13.91968467917631
 30
0.0
  0
SPLINE
  5
13E
330
1F
100
AcDbEntity
  8
0
  6
Continuous
 62
     7
370
    15
100
AcDbSpline
210
0.0
220
0.0
230
1.0
 70
     8
 71
     3
 72
    14
 73
    10
 74
     0
 42
0.00000001
 43
0.00000001
 40
8.0
 40
8.0
 40
8.0
 40
8.0
 40
9.0
 40
9.0
 40
9.0
 40
10.0
 40
10.0
 40
10.0
 40
11.0
 40
11.0
 40
11.0
 40
11.0
 10
-13.71083983593319
 20
-14.30115179773412
 30
0.0
 10
-13.75411778432054
 20
-14.24909886092304
 30
0.0
 10
-13.79829104516863
 20
-14.19745290591371
 30
0.0
 10
-13.84584295563988
 20
-14.14935376108524
 30
0.0
 10
-14.01670429539799
 20
-13.97652627288559
 30
0.0
 10
-14.18915449115993
 20
-13.80527053961612
 30
0.0
 10
-14.36100460549669
 20
-13.63342042527936
 30
0.0
 10
-14.36864973548404
 20
-13.62577529529201
 30
0.0
 10
-14.37629474671393
 20
-13.61813004654719
 30
0.0
 10
-14.38683043318029
 20
-13.60759436008083
 30
0.0
  0
SPLINE
  5
142
330
1F
100
AcDbEntity
  8
0
  6
Continuous
 62
     7
370
    15
100
AcDbSpline
210
0.0
220
0.0
230
1.0
 70
     8
 71
     3
 72
    19
 73
    15
 74
     0
 42
0.00000001
 43
0.00000001
 40
0.0
 40
0.0
 40
0.0
 40
0.0
 40
0.0686031277772655
 40
0.1330837451937105
 40
0.1951585827423557
 40
0.2561124345642308
 40
0.3152272371035602
 40
0.3734945637780531
 40
0.4317036586973869
 40
0.491123637551907
 40
0.6092671589048024
 40
0.7300101867436628
 40
0.859298260856638
 40
1.0
 40
1.0
 40
1.0
 40
1.0
 10
16.68433610337733
 20
-12.05968354452563
 30
0.0
 10
16.69286336147636
 20
-12.06614721726087
 30
0.0
 10
16.70940545628777
 20
-12.07868614665349
 30
0.0
 10
16.73134867198983
 20
-12.09980725173202
 30
0.0
 10
16.7512609427613
 20
-12.1212439617846
 30
0.0
 10
16.76778031521048
 20
-12.14442591485978
 30
0.0
 10
16.78157443390514
 20
-12.16856893024283
 30
0.0
 10
16.79334477156011
 20
-12.19335460831698
 30
0.0
 10
16.80119994204211
 20
-12.21968770366825
 30
0.0
 10
16.80900757853374
 20
-12.25563724052245
 30
0.0
 10
16.8103686414443
 20
-12.30253725667473
 30
0.0
 10
16.80050231802513
 20
-12.35943866098485
 30
0.0
 10
16.77698330592728
 20
-12.41617518727213
 30
0.0
 10
16.75369600728967
 20
-12.45128770319602
 30
0.0
 10
16.74156012935136
 20
-12.46958614192823
 30
0.0
  0
SPLINE
  5
143
330
1F
100
AcDbEntity
  8
0
  6
Continuous
 62
     7
370
    15
100
AcDbSpline
210
0.0
220
0.0
230
1.0
 70
     8
 71
     3
 72
    19
 73
    15
 74
     0
 42
0.00000001
 43
0.00000001
 40
0.0
 40
0.0
 40
0.0
 40
0.0
 40
0.0720474391461078
 40
0.1404996326009996
 40
0.2059255727652714
 40
0.2689880681355686
 40
0.3294285964324913
 40
0.3893359431716126
 40
0.4486109881785283
 40
0.5085805763336496
 40
0.6270740085734783
 40
0.7443713058971022
 40
0.8674119428487739
 40
0.9999999999999999
 40
0.9999999999999999
 40
0.9999999999999999
 40
0.9999999999999999
 10
16.27402766181889
 20
-12.12989458348667
 30
0.0
 10
16.28074574978151
 20
-12.12081549019354
 30
0.0
 10
16.29384668579972
 20
-12.10311036025202
 30
0.0
 10
16.31607923075504
 20
-12.07967746732593
 30
0.0
 10
16.33866596921811
 20
-12.05859949268103
 30
0.0
 10
16.36278116141326
 20
-12.04135807082041
 30
0.0
 10
16.38731712660401
 20
-12.02633907469982
 30
0.0
 10
16.41297713693637
 20
-12.01467631800589
 30
0.0
 10
16.43954999371283
 20
-12.00545617162418
 30
0.0
 10
16.47614480844984
 20
-11.99822495248146
 30
0.0
 10
16.52274521160855
 20
-11.99546997322262
 30
0.0
 10
16.57853868332044
 20
-12.00496621510407
 30
0.0
 10
16.63357644203963
 20
-12.02593415882781
 30
0.0
 10
16.66700010523537
 20
-12.04815708291555
 30
0.0
 10
16.68433610337733
 20
-12.05968354452563
 30
0.0
  0
SPLINE
  5
148
330
1F
100
AcDbEntity
  8
0
  6
Continuous
 62
     7
370
    15
100
AcDbSpline
210
0.0
220
0.0
230
1.0
 70
     8
 71
     3
 72
    15
 73
    11
 74
     0
 42
0.00000001
 43
0.00000001
 40
0.0
 40
0.0
 40
0.0
 40
0.0
 40
0.1496048336476683
 40
0.2884580977114771
 40
0.4177673941768665
 40
0.5382224337073684
 40
0.6547574085957253
 40
0.7688389959170573
 40
0.8840719978831137
 40
1.0
 40
1.0
 40
1.0
 40
1.0
 10
18.79335395930509
 20
-7.812308352858814
 30
0.0
 10
18.80051846382309
 20
-7.796746454707817
 30
0.0
 10
18.81433258529176
 20
-7.766741036915048
 30
0.0
 10
18.83879697736163
 20
-7.725543348611476
 30
0.0
 10
18.86517671896494
 20
-7.689650822418748
 30
0.0
 10
18.89347841632527
 20
-7.658580119847428
 30
0.0
 10
18.92420385277172
 20
-7.632537825542538
 30
0.0
 10
18.95699119187879
 20
-7.610227032823953
 30
0.0
 10
18.99235474668679
 20
-7.592264304102154
 30
0.0
 10
19.01740054974112
 20
-7.583665923494921
 30
0.0
 10
19.02996110216224
 20
-7.579353807404269
 30
0.0
  0
SPLINE
  5
149
330
1F
100
AcDbEntity
  8
0
  6
Continuous
 62
     7
370
    15
100
AcDbSpline
210
0.0
220
0.0
230
1.0
 70
     8
 71
     3
 72
    15
 73
    11
 74
     0
 42
0.00000001
 43
0.00000001
 40
0.0
 40
0.0
 40
0.0
 40
0.0
 40
0.1165897534536483
 40
0.2310805806405447
 40
0.3459553302415762
 40
0.4619139707150218
 40
0.5828755465255626
 40
0.7117914528585263
 40
0.8498334698335149
 40
1.0
 40
1.0
 40
1.0
 40
1.0
 10
19.99830525800639
 20
-8.002649261949722
 30
0.0
 10
20.00373280502652
 20
-8.014848315052747
 30
0.0
 10
20.01449018875633
 20
-8.039026805793203
 30
0.0
 10
20.02553417558086
 20
-8.077193085932281
 30
0.0
 10
20.03150173532583
 20
-8.116340256289263
 30
0.0
 10
20.03321064389457
 20
-8.156640923063936
 30
0.0
 10
20.02989438934549
 20
-8.198489207805991
 30
0.0
 10
20.02096494409833
 20
-8.242036526716065
 30
0.0
 10
20.00768925168784
 20
-8.287976167301972
 30
0.0
 10
19.99484924015497
 20
-8.318381642618084
 30
0.0
 10
19.98815915411029
 20
-8.334223937274398
 30
0.0
  0
SPLINE
  5
14A
330
1F
100
AcDbEntity
  8
0
  6
Continuous
 62
     7
370
    15
100
AcDbSpline
210
0.0
220
0.0
230
1.0
 70
     8
 71
     3
 72
    17
 73
    13
 74
     0
 42
0.00000001
 43
0.00000001
 40
0.0
 40
0.0
 40
0.0
 40
0.0
 40
0.0836240310745483
 40
0.1675232033972947
 40
0.2599980074720964
 40
0.3674286605511499
 40
0.4929367038331794
 40
0.6368515576866651
 40
0.7173976173560144
 40
0.8046710412424478
 40
0.898967793825648
 40
1.0
 40
1.0
 40
1.0
 40
1.0
 10
19.02996110216224
 20
-7.579353807404269
 30
0.0
 10
19.0444773461301
 20
-7.575459313932163
 30
0.0
 10
19.07355759566538
 20
-7.567657513257479
 30
0.0
 10
19.12044964505249
 20
-7.565124560379779
 30
0.0
 10
19.17119437864179
 20
-7.570599263417476
 30
0.0
 10
19.22811388645334
 20
-7.583921955121904
 30
0.0
 10
19.29261937009081
 20
-7.604189909492394
 30
0.0
 10
19.35148640931001
 20
-7.626031801514297
 30
0.0
 10
19.40323352055579
 20
-7.647188347784082
 30
0.0
 10
19.44676719161811
 20
-7.664924273654003
 30
0.0
 10
19.49333142638418
 20
-7.684935883443989
 30
0.0
 10
19.52549836000691
 20
-7.698804014023293
 30
0.0
 10
19.54213642683756
 20
-7.705977184027645
 30
0.0
  0
SPLINE
  5
14B
330
1F
100
AcDbEntity
  8
0
  6
Continuous
 62
     7
370
    15
100
AcDbSpline
210
0.0
220
0.0
230
1.0
 70
     8
 71
     3
 72
    19
 73
    15
 74
     0
 42
0.00000001
 43
0.00000001
 40
0.0
 40
0.0
 40
0.0
 40
0.0
 40
0.0994508236537687
 40
0.1936188181432331
 40
0.2811824083126229
 40
0.3634838436329921
 40
0.4388941153261539
 40
0.5087582862217542
 40
0.5730619233170006
 40
0.6309011481192949
 40
0.7354194306697587
 40
0.8310824284477782
 40
0.9183970614519834
 40
1.0
 40
1.0
 40
1.0
 40
1.0
 10
19.54213642683756
 20
-7.705977184027645
 30
0.0
 10
19.55891982119762
 20
-7.713398301158047
 30
0.0
 10
19.59159507577109
 20
-7.727846325571536
 30
0.0
 10
19.63890721862808
 20
-7.749148116821616
 30
0.0
 10
19.68293543866884
 20
-7.770015935057097
 30
0.0
 10
19.72363535597659
 20
-7.789806476351075
 30
0.0
 10
19.76133181547542
 20
-7.808329267811724
 30
0.0
 10
19.79526253477944
 20
-7.826891245833044
 30
0.0
 10
19.8265178253304
 20
-7.843584820736662
 30
0.0
 10
19.86257560803876
 20
-7.864785636939787
 30
0.0
 10
19.90227567273828
 20
-7.891227628935749
 30
0.0
 10
19.94278993585957
 20
-7.925622553607893
 30
0.0
 10
19.97554686724372
 20
-7.962284542555384
 30
0.0
 10
19.990892086278
 20
-7.989501118051539
 30
0.0
 10
19.99830525800639
 20
-8.002649261949722
 30
0.0
  0
SPLINE
  5
14C
330
1F
100
AcDbEntity
  8
0
  6
Continuous
 62
     7
370
    15
100
AcDbSpline
210
0.0
220
0.0
230
1.0
 70
     8
 71
     3
 72
    14
 73
    10
 74
     0
 42
0.00000001
 43
0.00000001
 40
1.0
 40
1.0
 40
1.0
 40
1.0
 40
2.0
 40
2.0
 40
2.0
 40
3.0
 40
3.0
 40
3.0
 40
4.0
 40
4.0
 40
4.0
 40
4.0
 10
-10.76323726288252
 20
-17.22283531849822
 30
0.0
 10
-10.81704484110592
 20
-17.16902774027482
 30
0.0
 10
-10.86962838623037
 20
-17.11392202429987
 30
0.0
 10
-10.92497648617302
 20
-17.06174807364117
 30
0.0
 10
-10.99094874688671
 20
-16.99955918796065
 30
0.0
 10
-11.05806262302496
 20
-16.93844731364858
 30
0.0
 10
-11.12692876542645
 20
-16.87949623124841
 30
0.0
 10
-11.20683626354193
 20
-16.81109371795516
 30
0.0
 10
-11.29068330274527
 20
-16.80380533536561
 30
0.0
 10
-11.37665182514252
 20
-16.86306198070008
 30
0.0
  0
SPLINE
  5
14D
330
1F
100
AcDbEntity
  8
0
  6
Continuous
 62
     7
370
    15
100
AcDbSpline
210
0.0
220
0.0
230
1.0
 70
     8
 71
     3
 72
    17
 73
    13
 74
     0
 42
0.00000001
 43
0.00000001
 40
4.0
 40
4.0
 40
4.0
 40
4.0
 40
5.0
 40
5.0
 40
5.0
 40
6.0
 40
6.0
 40
6.0
 40
7.0
 40
7.0
 40
7.0
 40
8.0
 40
8.0
 40
8.0
 40
8.0
 10
-11.37665182514252
 20
-16.86306198070008
 30
0.0
 10
-11.5286131532934
 20
-16.96780724446522
 30
0.0
 10
-11.65869092626997
 20
-17.0972845797443
 30
0.0
 10
-11.77225749386674
 20
-17.24194659961972
 30
0.0
 10
-11.844464164748
 20
-17.33392401177557
 30
0.0
 10
-11.84392571844252
 20
-17.41821069108099
 30
0.0
 10
-11.77098417642354
 20
-17.51087784654131
 30
0.0
 10
-11.70427930096376
 20
-17.59562197956726
 30
0.0
 10
-11.63052712055013
 20
-17.67525502920191
 30
0.0
 10
-11.55551041074504
 20
-17.75292050530561
 30
0.0
 10
-11.45110194312507
 20
-17.86101567938963
 30
0.0
 10
-11.34385517230673
 20
-17.96646446232414
 30
0.0
 10
-11.23537546158021
 20
-18.0704940936595
 30
0.0
  0
SPLINE
  5
14E
330
1F
100
AcDbEntity
  8
0
  6
Continuous
 62
     7
370
    15
100
AcDbSpline
210
0.0
220
0.0
230
1.0
 70
     8
 71
     3
 72
    17
 73
    13
 74
     0
 42
0.00000001
 43
0.00000001
 40
10.0
 40
10.0
 40
10.0
 40
10.0
 40
11.0
 40
11.0
 40
11.0
 40
12.0
 40
12.0
 40
12.0
 40
13.0
 40
13.0
 40
13.0
 40
14.0
 40
14.0
 40
14.0
 40
14.0
 10
-10.79917671303387
 20
-18.22541675773315
 30
0.0
 10
-10.65439712327706
 20
-18.11744057862004
 30
0.0
 10
-10.53095622948641
 20
-17.98668422553989
 30
0.0
 10
-10.42198510040697
 20
-17.84305682062116
 30
0.0
 10
-10.36075078715774
 20
-17.7623481847075
 30
0.0
 10
-10.35551773985919
 20
-17.67631446446692
 30
0.0
 10
-10.41708991807071
 20
-17.59131714054478
 30
0.0
 10
-10.4299746270167
 20
-17.57353012381515
 30
0.0
 10
-10.44333270318232
 20
-17.55585925187748
 30
0.0
 10
-10.45830647453679
 20
-17.53984777787248
 30
0.0
 10
-10.55846152511274
 20
-17.43275111647856
 30
0.0
 10
-10.65911286309729
 20
-17.32611844046518
 30
0.0
 10
-10.75960292845662
 20
-17.21933589254232
 30
0.0
  0
SPLINE
  5
150
330
1F
100
AcDbEntity
  8
0
  6
Continuous
 62
     7
370
    15
100
AcDbSpline
210
0.0
220
0.0
230
1.0
 70
     8
 71
     3
 72
    11
 73
     7
 74
     0
 42
0.00000001
 43
0.00000001
 40
8.0
 40
8.0
 40
8.0
 40
8.0
 40
9.0
 40
9.0
 40
9.0
 40
10.0
 40
10.0
 40
10.0
 40
10.0
 10
-11.23537546158021
 20
-18.0704940936595
 30
0.0
 10
-11.17864526236467
 20
-18.12489807182693
 30
0.0
 10
-11.11958599192207
 20
-18.17778622982603
 30
0.0
 10
-11.05640203751772
 20
-18.22433416476425
 30
0.0
 10
-10.96368405386625
 20
-18.29263989073091
 30
0.0
 10
-10.89088882103306
 20
-18.29381440197069
 30
0.0
 10
-10.79917671303387
 20
-18.22541675773315
 30
0.0
  0
LINE
  5
169
330
1F
100
AcDbEntity
  8
0
  6
Continuous
 62
     7
370
    15
100
AcDbLine
 10
17.0
 20
-2.2805197818
 30
0.0
 11
15.0
 21
-2.2805197818
 31
0.0
  0
LINE
  5
16A
330
1F
100
AcDbEntity
  8
0
  6
Continuous
 62
     7
370
    15
100
AcDbLine
 10
17.0
 20
-4.699
 30
0.0
 11
15.0
 21
-4.699
 31
0.0
  0
LINE
  5
16B
330
1F
100
AcDbEntity
  8
0
  6
Continuous
 62
     7
370
    15
100
AcDbLine
 10
-17.0
 20
-2.2805197818
 30
0.0
 11
-15.0
 21
-2.2805197818
 31
0.0
  0
LINE
  5
16C
330
1F
100
AcDbEntity
  8
0
  6
Continuous
 62
     7
370
    15
100
AcDbLine
 10
-17.0
 20
-4.699
 30
0.0
 11
-15.0
 21
-4.699
 31
0.0
  0
LINE
  5
16D
330
1F
100
AcDbEntity
  8
0
  6
Continuous
 62
     7
370
    15
100
AcDbLine
 10
-17.0
 20
2.2805197818
 30
0.0
 11
-15.0
 21
2.2805197818
 31
0.0
  0
LINE
  5
16E
330
1F
100
AcDbEntity
  8
0
  6
Continuous
 62
     7
370
    15
100
AcDbLine
 10
-17.0
 20
4.699
 30
0.0
 11
-15.0
 21
4.699
 31
0.0
  0
LINE
  5
16F
330
1F
100
AcDbEntity
  8
0
  6
Continuous
 62
     7
370
    15
100
AcDbLine
 10
-6.5624260904
 20
-19.5209356698
 30
0.0
 11
-6.6402549767
 21
-19.5987645562
 31
0.0
  0
LINE
  5
170
330
1F
100
AcDbEntity
  8
0
  6
Continuous
 62
     7
370
    15
100
AcDbLine
 10
-9.5031864526
 20
-17.8430950605
 30
0.0
 11
-9.466428051
 21
-19.2550408135
 31
0.0
  0
LINE
  5
171
330
1F
100
AcDbEntity
  8
0
  6
Continuous
 62
     7
370
    15
100
AcDbLine
 10
-9.466428051
 20
-19.2550408135
 30
0.0
 11
-8.930398341
 21
-19.3063493786
 31
0.0
  0
LINE
  5
172
330
1F
100
AcDbEntity
  8
0
  6
Continuous
 62
     7
370
    15
100
AcDbLine
 10
-20.4587737505
 20
-9.5315981051
 30
0.0
 11
-20.8907240698
 21
-9.0996477858
 31
0.0
  0
LINE
  5
173
330
1F
100
AcDbEntity
  8
0
  6
Continuous
 62
     7
370
    15
100
AcDbLine
 10
-19.0117512015
 20
-9.1463567559
 30
0.0
 11
-19.392133827
 21
-8.7659741304
 31
0.0
  0
LINE
  5
174
330
1F
100
AcDbEntity
  8
0
  6
Continuous
 62
     7
370
    15
100
AcDbLine
 10
-21.1553422879
 20
-8.1968326996
 30
0.0
 11
-21.026924621
 21
-8.0684150415
 31
0.0
  0
LINE
  5
175
330
1F
100
AcDbEntity
  8
0
  6
Continuous
 62
     7
370
    15
100
AcDbLine
 10
20.8456020698
 20
-7.0254255183
 30
0.0
 11
20.4559916802
 21
-6.8898735702
 31
0.0
  0
LINE
  5
176
330
1F
100
AcDbEntity
  8
0
  6
Continuous
 62
     7
370
    15
100
AcDbLine
 10
20.4559916802
 20
-6.8898735702
 30
0.0
 11
20.3204397322
 21
-7.2794839598
 31
0.0
  0
LINE
  5
177
330
1F
100
AcDbEntity
  8
0
  6
Continuous
 62
     7
370
    15
100
AcDbLine
 10
20.3204397322
 20
-7.2794839598
 30
0.0
 11
20.7100501218
 21
-7.4150359079
 31
0.0
  0
LINE
  5
178
330
1F
100
AcDbEntity
  8
0
  6
Continuous
 62
     7
370
    15
100
AcDbLine
 10
20.7100501218
 20
-7.4150359079
 30
0.0
 11
20.8456020698
 21
-7.0254255183
 31
0.0
  0
LINE
  5
179
330
1F
100
AcDbEntity
  8
0
  6
Continuous
 62
     7
370
    15
100
AcDbLine
 10
18.4974935697
 20
-7.6406362749
 30
0.0
 11
18.2097500632
 21
-8.2993213399
 31
0.0
  0
LINE
  5
17A
330
1F
100
AcDbEntity
  8
0
  6
Continuous
 62
     7
370
    15
100
AcDbLine
 10
18.2097500632
 20
-8.2993213399
 30
0.0
 11
20.0279318814
 21
-9.0935583529
 31
0.0
  0
LINE
  5
17B
330
1F
100
AcDbEntity
  8
0
  6
Continuous
 62
     7
370
    15
100
AcDbLine
 10
20.0279318814
 20
-9.0935583529
 30
0.0
 11
20.3156753879
 21
-8.4348732879
 31
0.0
  0
LINE
  5
17C
330
1F
100
AcDbEntity
  8
0
  6
Continuous
 62
     7
370
    15
100
AcDbLine
 10
16.4991234769
 20
-14.562136169
 30
0.0
 11
16.1874351652
 21
-14.2735809742
 31
0.0
  0
LINE
  5
17D
330
1F
100
AcDbEntity
  8
0
  6
Continuous
 62
     7
370
    15
100
AcDbLine
 10
16.1874351652
 20
-14.2735809742
 30
0.0
 11
15.8984741263
 21
-14.5852692859
 31
0.0
  0
LINE
  5
17E
330
1F
100
AcDbEntity
  8
0
  6
Continuous
 62
     7
370
    15
100
AcDbLine
 10
15.8984741263
 20
-14.5852692859
 30
0.0
 11
16.210162438
 21
-14.8738244807
 31
0.0
  0
LINE
  5
17F
330
1F
100
AcDbEntity
  8
0
  6
Continuous
 62
     7
370
    15
100
AcDbLine
 10
16.210162438
 20
-14.8738244807
 30
0.0
 11
16.4991234769
 21
-14.562136169
 31
0.0
  0
LINE
  5
180
330
1F
100
AcDbEntity
  8
0
  6
Continuous
 62
     7
370
    15
100
AcDbLine
 10
14.8501057663
 20
-13.9096337098
 30
0.0
 11
14.6171512208
 21
-13.6758674761
 31
0.0
  0
LINE
  5
181
330
1F
100
AcDbEntity
  8
0
  6
Continuous
 62
     7
370
    15
100
AcDbLine
 10
14.6171512208
 20
-13.6758674761
 30
0.0
 11
13.6232388831
 21
-14.6665330605
 31
0.0
  0
LINE
  5
182
330
1F
100
AcDbEntity
  8
0
  6
Continuous
 62
     7
370
    15
100
AcDbLine
 10
13.6232388831
 20
-14.6665330605
 30
0.0
 11
13.8561934286
 21
-14.9002992943
 31
0.0
  0
LINE
  5
183
330
1F
100
AcDbEntity
  8
0
  6
Continuous
 62
     7
370
    15
100
AcDbLine
 10
13.8561934286
 20
-14.9002992943
 30
0.0
 11
14.2234823896
 21
-14.5342278657
 31
0.0
  0
LINE
  5
184
330
1F
100
AcDbEntity
  8
0
  6
Continuous
 62
     7
370
    15
100
AcDbLine
 10
14.2234823896
 20
-14.5342278657
 30
0.0
 11
15.3882551169
 21
-15.7030590345
 31
0.0
  0
LINE
  5
185
330
1F
100
AcDbEntity
  8
0
  6
Continuous
 62
     7
370
    15
100
AcDbLine
 10
15.3882551169
 20
-15.7030590345
 30
0.0
 11
15.6479953766
 21
-15.4441304631
 31
0.0
  0
LINE
  5
186
330
1F
100
AcDbEntity
  8
0
  6
Continuous
 62
     7
370
    15
100
AcDbLine
 10
15.6479953766
 20
-15.4441304631
 30
0.0
 11
14.4832226494
 21
-14.2752992943
 31
0.0
  0
LINE
  5
187
330
1F
100
AcDbEntity
  8
0
  6
Continuous
 62
     7
370
    15
100
AcDbLine
 10
14.4832226494
 20
-14.2752992943
 30
0.0
 11
14.8501057663
 21
-13.9096337098
 31
0.0
  0
LINE
  5
188
330
1F
100
AcDbEntity
  8
0
  6
Continuous
 62
     7
370
    15
100
AcDbLine
 10
14.9349327551
 20
-16.1433075451
 30
0.0
 11
13.0855009369
 21
-15.1132750775
 31
0.0
  0
LINE
  5
189
330
1F
100
AcDbEntity
  8
0
  6
Continuous
 62
     7
370
    15
100
AcDbLine
 10
13.0855009369
 20
-15.1132750775
 30
0.0
 11
12.8529522356
 21
-15.3133562464
 31
0.0
  0
LINE
  5
18A
330
1F
100
AcDbEntity
  8
0
  6
Continuous
 62
     7
370
    15
100
AcDbLine
 10
12.8529522356
 20
-15.3133562464
 30
0.0
 11
13.5972704174
 21
-17.294281571
 31
0.0
  0
LINE
  5
18B
330
1F
100
AcDbEntity
  8
0
  6
Continuous
 62
     7
370
    15
100
AcDbLine
 10
13.5972704174
 20
-17.294281571
 30
0.0
 11
13.90611782
 21
-17.028453649
 31
0.0
  0
LINE
  5
18C
330
1F
100
AcDbEntity
  8
0
  6
Continuous
 62
     7
370
    15
100
AcDbLine
 10
13.90611782
 20
-17.028453649
 30
0.0
 11
13.7742184694
 21
-16.689979623
 31
0.0
  0
LINE
  5
18D
330
1F
100
AcDbEntity
  8
0
  6
Continuous
 62
     7
370
    15
100
AcDbLine
 10
13.7742184694
 20
-16.689979623
 30
0.0
 11
14.3131795083
 21
-16.2260997529
 31
0.0
  0
LINE
  5
18E
330
1F
100
AcDbEntity
  8
0
  6
Continuous
 62
     7
370
    15
100
AcDbLine
 10
14.3131795083
 20
-16.2260997529
 30
0.0
 11
14.6260853525
 21
-16.4091354671
 31
0.0
  0
LINE
  5
18F
330
1F
100
AcDbEntity
  8
0
  6
Continuous
 62
     7
370
    15
100
AcDbLine
 10
14.6260853525
 20
-16.4091354671
 30
0.0
 11
14.9349327551
 21
-16.1433075451
 31
0.0
  0
LINE
  5
190
330
1F
100
AcDbEntity
  8
0
  6
Continuous
 62
     7
370
    15
100
AcDbLine
 10
11.4340868874
 20
-18.7846421345
 30
0.0
 11
11.2120901341
 21
-18.4210057709
 31
0.0
  0
LINE
  5
191
330
1F
100
AcDbEntity
  8
0
  6
Continuous
 62
     7
370
    15
100
AcDbLine
 10
11.2120901341
 20
-18.4210057709
 30
0.0
 11
10.8484537705
 21
-18.6430025241
 31
0.0
  0
LINE
  5
192
330
1F
100
AcDbEntity
  8
0
  6
Continuous
 62
     7
370
    15
100
AcDbLine
 10
10.8484537705
 20
-18.6430025241
 30
0.0
 11
11.0704505237
 21
-19.0066388878
 31
0.0
  0
LINE
  5
193
330
1F
100
AcDbEntity
  8
0
  6
Continuous
 62
     7
370
    15
100
AcDbLine
 10
11.0704505237
 20
-19.0066388878
 30
0.0
 11
11.4340868874
 21
-18.7846421345
 31
0.0
  0
LINE
  5
194
330
1F
100
AcDbEntity
  8
0
  6
Continuous
 62
     7
370
    15
100
AcDbLine
 10
10.0595367742
 20
-17.6601417815
 30
0.0
 11
9.9093744366
 21
-17.3744274958
 31
0.0
  0
LINE
  5
195
330
1F
100
AcDbEntity
  8
0
  6
Continuous
 62
     7
370
    15
100
AcDbLine
 10
9.9093744366
 20
-17.3744274958
 30
0.0
 11
8.6439523587
 21
-18.0387943789
 31
0.0
  0
LINE
  5
196
330
1F
100
AcDbEntity
  8
0
  6
Continuous
 62
     7
370
    15
100
AcDbLine
 10
8.6439523587
 20
-18.0387943789
 30
0.0
 11
8.7941146963
 21
-18.3245086646
 31
0.0
  0
LINE
  5
197
330
1F
100
AcDbEntity
  8
0
  6
Continuous
 62
     7
370
    15
100
AcDbLine
 10
8.7941146963
 20
-18.3245086646
 30
0.0
 11
9.2579945664
 21
-18.0810021711
 31
0.0
  0
LINE
  5
198
330
1F
100
AcDbEntity
  8
0
  6
Continuous
 62
     7
370
    15
100
AcDbLine
 10
9.2579945664
 20
-18.0810021711
 30
0.0
 11
10.0351861249
 21
-19.5615216516
 31
0.0
  0
LINE
  5
199
330
1F
100
AcDbEntity
  8
0
  6
Continuous
 62
     7
370
    15
100
AcDbLine
 10
10.0351861249
 20
-19.5615216516
 30
0.0
 11
10.3728484626
 21
-19.3841677555
 31
0.0
  0
LINE
  5
19A
330
1F
100
AcDbEntity
  8
0
  6
Continuous
 62
     7
370
    15
100
AcDbLine
 10
10.3728484626
 20
-19.3841677555
 30
0.0
 11
9.5956569041
 21
-17.903648275
 31
0.0
  0
LINE
  5
19B
330
1F
100
AcDbEntity
  8
0
  6
Continuous
 62
     7
370
    15
100
AcDbLine
 10
9.5956569041
 20
-17.903648275
 30
0.0
 11
10.0595367742
 21
-17.6601417815
 31
0.0
  0
LINE
  5
19C
330
1F
100
AcDbEntity
  8
0
  6
Continuous
 62
     7
370
    15
100
AcDbLine
 10
9.2563643922
 20
-19.9147184738
 30
0.0
 11
8.4507637428
 21
-18.0965366556
 31
0.0
  0
LINE
  5
19D
330
1F
100
AcDbEntity
  8
0
  6
Continuous
 62
     7
370
    15
100
AcDbLine
 10
8.4507637428
 20
-18.0965366556
 30
0.0
 11
8.1131014052
 21
-18.2462931491
 31
0.0
  0
LINE
  5
19E
330
1F
100
AcDbEntity
  8
0
  6
Continuous
 62
     7
370
    15
100
AcDbLine
 10
8.1131014052
 20
-18.2462931491
 30
0.0
 11
8.6062020545
 21
-19.3595236686
 31
0.0
  0
LINE
  5
19F
330
1F
100
AcDbEntity
  8
0
  6
Continuous
 62
     7
370
    15
100
AcDbLine
 10
8.6062020545
 20
-19.3595236686
 30
0.0
 11
7.3732475091
 21
-18.5742152271
 31
0.0
  0
LINE
  5
1A0
330
1F
100
AcDbEntity
  8
0
  6
Continuous
 62
     7
370
    15
100
AcDbLine
 10
7.3732475091
 20
-18.5742152271
 30
0.0
 11
7.0481663402
 21
-18.7182899024
 31
0.0
  0
LINE
  5
1A1
330
1F
100
AcDbEntity
  8
0
  6
Continuous
 62
     7
370
    15
100
AcDbLine
 10
7.0481663402
 20
-18.7182899024
 30
0.0
 11
7.8537669896
 21
-20.5364717206
 31
0.0
  0
LINE
  5
1A2
330
1F
100
AcDbEntity
  8
0
  6
Continuous
 62
     7
370
    15
100
AcDbLine
 10
7.8537669896
 20
-20.5364717206
 30
0.0
 11
8.1914293273
 21
-20.3867152271
 31
0.0
  0
LINE
  5
1A3
330
1F
100
AcDbEntity
  8
0
  6
Continuous
 62
     7
370
    15
100
AcDbLine
 10
8.1914293273
 20
-20.3867152271
 30
0.0
 11
7.6967053013
 21
-19.2706437985
 31
0.0
  0
LINE
  5
1A4
330
1F
100
AcDbEntity
  8
0
  6
Continuous
 62
     7
370
    15
100
AcDbLine
 10
7.6967053013
 20
-19.2706437985
 30
0.0
 11
8.9312832234
 21
-20.0587931491
 31
0.0
  0
LINE
  5
1A5
330
1F
100
AcDbEntity
  8
0
  6
Continuous
 62
     7
370
    15
100
AcDbLine
 10
8.9312832234
 20
-20.0587931491
 30
0.0
 11
9.2563643922
 21
-19.9147184738
 31
0.0
  0
LINE
  5
1A6
330
1F
100
AcDbEntity
  8
0
  6
Continuous
 62
     7
370
    15
100
AcDbLine
 10
7.4369684479
 20
-20.7016163656
 30
0.0
 11
6.7766600064
 21
-18.8055124695
 31
0.0
  0
LINE
  5
1A7
330
1F
100
AcDbEntity
  8
0
  6
Continuous
 62
     7
370
    15
100
AcDbLine
 10
6.7766600064
 20
-18.8055124695
 30
0.0
 11
6.4130236427
 21
-18.9321358461
 31
0.0
  0
LINE
  5
1A8
330
1F
100
AcDbEntity
  8
0
  6
Continuous
 62
     7
370
    15
100
AcDbLine
 10
6.4130236427
 20
-18.9321358461
 30
0.0
 11
7.0733320843
 21
-20.8282397422
 31
0.0
  0
LINE
  5
1A9
330
1F
100
AcDbEntity
  8
0
  6
Continuous
 62
     7
370
    15
100
AcDbLine
 10
7.0733320843
 20
-20.8282397422
 30
0.0
 11
7.4369684479
 21
-20.7016163656
 31
0.0
  0
LINE
  5
1AA
330
1F
100
AcDbEntity
  8
0
  6
Continuous
 62
     7
370
    15
100
AcDbLine
 10
22.225
 20
0.8660254038
 30
0.0
 11
21.667393876
 21
0.544091358
 31
0.0
  0
LINE
  5
1AB
330
1F
100
AcDbEntity
  8
0
  6
Continuous
 62
     7
370
    15
100
AcDbLine
 10
17.0
 20
4.699
 30
0.0
 11
15.0
 21
4.699
 31
0.0
  0
LINE
  5
1AC
330
1F
100
AcDbEntity
  8
0
  6
Continuous
 62
     7
370
    15
100
AcDbLine
 10
21.667393876
 20
-0.544091358
 30
0.0
 11
22.225
 21
-0.8660254038
 31
0.0
  0
LINE
  5
1AD
330
1F
100
AcDbEntity
  8
0
  6
Continuous
 62
     7
370
    15
100
AcDbLine
 10
0.8660254038
 20
-22.225
 30
0.0
 11
0.2165063509
 21
-21.1
 31
0.0
  0
LINE
  5
1AE
330
1F
100
AcDbEntity
  8
0
  6
Continuous
 62
     7
370
    15
100
AcDbLine
 10
-0.8660254038
 20
-22.225
 30
0.0
 11
-0.2165063509
 21
-21.1
 31
0.0
  0
LINE
  5
1AF
330
1F
100
AcDbEntity
  8
0
  6
Continuous
 62
     7
370
    15
100
AcDbLine
 10
-0.8660254038
 20
-22.225
 30
0.0
 11
-10.8467449034
 21
-22.225
 31
0.0
  0
LINE
  5
1B0
330
1F
100
AcDbEntity
  8
0
  6
Continuous
 62
     7
370
    15
100
AcDbLine
 10
-21.667393876
 20
-0.544091358
 30
0.0
 11
-22.225
 21
-0.8660254038
 31
0.0
  0
LINE
  5
1B1
330
1F
100
AcDbEntity
  8
0
  6
Continuous
 62
     7
370
    15
100
AcDbLine
 10
-22.225
 20
0.8660254038
 30
0.0
 11
-21.667393876
 21
0.544091358
 31
0.0
  0
LINE
  5
1B2
330
1F
100
AcDbEntity
  8
0
  6
Continuous
 62
     7
370
    15
100
AcDbLine
 10
-0.2165063509
 20
21.1
 30
0.0
 11
-0.8660254038
 21
22.225
 31
0.0
  0
LINE
  5
1B3
330
1F
100
AcDbEntity
  8
0
  6
Continuous
 62
     7
370
    15
100
AcDbLine
 10
0.2165063509
 20
21.1
 30
0.0
 11
0.8660254038
 21
22.225
 31
0.0
  0
LINE
  5
1B4
330
1F
100
AcDbEntity
  8
0
  6
Continuous
 62
     7
370
    15
100
AcDbLine
 10
11.7869485139
 20
-16.133370977
 30
0.0
 11
11.1554550074
 21
-16.5956274705
 31
0.0
  0
LINE
  5
1B5
330
1F
100
AcDbEntity
  8
0
  6
Continuous
 62
     7
370
    15
100
AcDbLine
 10
11.1554550074
 20
-16.5956274705
 30
0.0
 11
12.3340264359
 21
-18.2060170809
 31
0.0
  0
LINE
  5
1B6
330
1F
100
AcDbEntity
  8
0
  6
Continuous
 62
     7
370
    15
100
AcDbLine
 10
12.3340264359
 20
-18.2060170809
 30
0.0
 11
12.6457147476
 21
-17.9779326653
 31
0.0
  0
LINE
  5
1B7
330
1F
100
AcDbEntity
  8
0
  6
Continuous
 62
     7
370
    15
100
AcDbLine
 10
12.6457147476
 20
-17.9779326653
 30
0.0
 11
12.1895459165
 21
-17.3545560419
 31
0.0
  0
LINE
  5
1B8
330
1F
100
AcDbEntity
  8
0
  6
Continuous
 62
     7
370
    15
100
AcDbLine
 10
12.1895459165
 20
-17.3545560419
 30
0.0
 11
12.5052926697
 21
-17.1236307172
 31
0.0
  0
LINE
  5
1B9
330
1F
100
AcDbEntity
  8
0
  6
Continuous
 62
     7
370
    15
100
AcDbLine
 10
16.0256510384
 20
-11.9257549731
 30
0.0
 11
15.5666412982
 21
-12.5572484796
 31
0.0
  0
LINE
  5
1BA
330
1F
100
AcDbEntity
  8
0
  6
Continuous
 62
     7
370
    15
100
AcDbLine
 10
15.5666412982
 20
-12.5572484796
 30
0.0
 11
17.1770309086
 21
-13.7272971809
 31
0.0
  0
LINE
  5
1BB
330
1F
100
AcDbEntity
  8
0
  6
Continuous
 62
     7
370
    15
100
AcDbLine
 10
17.1770309086
 20
-13.7272971809
 30
0.0
 11
17.4034919475
 21
-13.4156088692
 31
0.0
  0
LINE
  5
1BC
330
1F
100
AcDbEntity
  8
0
  6
Continuous
 62
     7
370
    15
100
AcDbLine
 10
17.4034919475
 20
-13.4156088692
 30
0.0
 11
16.7801153242
 21
-12.9626867913
 31
0.0
  0
LINE
  5
1BD
330
1F
100
AcDbEntity
  8
0
  6
Continuous
 62
     7
370
    15
100
AcDbLine
 10
16.7801153242
 20
-12.9626867913
 30
0.0
 11
17.0098231164
 21
-12.646940038
 31
0.0
  0
LINE
  5
1BE
330
1F
100
AcDbEntity
  8
0
  6
Continuous
 62
     7
370
    15
100
AcDbLine
 10
18.9335307135
 20
-11.1979641958
 30
0.0
 11
18.6478164278
 21
-11.016146014
 31
0.0
  0
LINE
  5
1BF
330
1F
100
AcDbEntity
  8
0
  6
Continuous
 62
     7
370
    15
100
AcDbLine
 10
18.6478164278
 20
-11.016146014
 30
0.0
 11
18.1506573369
 21
-11.7961784815
 31
0.0
  0
LINE
  5
1C0
330
1F
100
AcDbEntity
  8
0
  6
Continuous
 62
     7
370
    15
100
AcDbLine
 10
18.1506573369
 20
-11.7961784815
 30
0.0
 11
17.7350729213
 21
-11.5311622478
 31
0.0
  0
LINE
  5
1C1
330
1F
100
AcDbEntity
  8
0
  6
Continuous
 62
     7
370
    15
100
AcDbLine
 10
17.7350729213
 20
-11.5311622478
 30
0.0
 11
18.1583683758
 21
-10.8672012088
 31
0.0
  0
LINE
  5
1C2
330
1F
100
AcDbEntity
  8
0
  6
Continuous
 62
     7
370
    15
100
AcDbLine
 10
18.1583683758
 20
-10.8672012088
 30
0.0
 11
17.8726540901
 21
-10.685383027
 31
0.0
  0
LINE
  5
1C3
330
1F
100
AcDbEntity
  8
0
  6
Continuous
 62
     7
370
    15
100
AcDbLine
 10
17.8726540901
 20
-10.685383027
 30
0.0
 11
17.4493586356
 21
-11.3493440659
 31
0.0
  0
LINE
  5
1C4
330
1F
100
AcDbEntity
  8
0
  6
Continuous
 62
     7
370
    15
100
AcDbLine
 10
17.4493586356
 20
-11.3493440659
 30
0.0
 11
17.03377422
 21
-11.0843278322
 31
0.0
  0
LINE
  5
1C5
330
1F
100
AcDbEntity
  8
0
  6
Continuous
 62
     7
370
    15
100
AcDbLine
 10
17.03377422
 20
-11.0843278322
 30
0.0
 11
17.5309333109
 21
-10.3042953646
 31
0.0
  0
LINE
  5
1C6
330
1F
100
AcDbEntity
  8
0
  6
Continuous
 62
     7
370
    15
100
AcDbLine
 10
17.5309333109
 20
-10.3042953646
 30
0.0
 11
17.2452190252
 21
-10.1224771828
 31
0.0
  0
LINE
  5
1C7
330
1F
100
AcDbEntity
  8
0
  6
Continuous
 62
     7
370
    15
100
AcDbLine
 10
17.2452190252
 20
-10.1224771828
 30
0.0
 11
16.5496021421
 21
-11.214197962
 31
0.0
  0
LINE
  5
1C8
330
1F
100
AcDbEntity
  8
0
  6
Continuous
 62
     7
370
    15
100
AcDbLine
 10
16.5496021421
 20
-11.214197962
 30
0.0
 11
18.2379138304
 21
-12.289684975
 31
0.0
  0
LINE
  5
1C9
330
1F
100
AcDbEntity
  8
0
  6
Continuous
 62
     7
370
    15
100
AcDbLine
 10
18.2379138304
 20
-12.289684975
 30
0.0
 11
18.9335307135
 21
-11.1979641958
 31
0.0
  0
LINE
  5
1CA
330
1F
100
AcDbEntity
  8
0
  6
Continuous
 62
     7
370
    15
100
AcDbLine
 10
19.8265796527
 20
-9.5121216644
 30
0.0
 11
18.0603458864
 21
-8.5884203657
 31
0.0
  0
LINE
  5
1CB
330
1F
100
AcDbEntity
  8
0
  6
Continuous
 62
     7
370
    15
100
AcDbLine
 10
18.0603458864
 20
-8.5884203657
 30
0.0
 11
17.8838036786
 21
-8.9260827033
 31
0.0
  0
LINE
  5
1CC
330
1F
100
AcDbEntity
  8
0
  6
Continuous
 62
     7
370
    15
100
AcDbLine
 10
18.965378354
 20
-9.4918294566
 30
0.0
 11
17.5157030293
 21
-9.6298164696
 31
0.0
  0
LINE
  5
1CD
330
1F
100
AcDbEntity
  8
0
  6
Continuous
 62
     7
370
    15
100
AcDbLine
 10
17.5157030293
 20
-9.6298164696
 30
0.0
 11
17.3541770553
 21
-9.9390697163
 31
0.0
  0
LINE
  5
1CE
330
1F
100
AcDbEntity
  8
0
  6
Continuous
 62
     7
370
    15
100
AcDbLine
 10
17.3541770553
 20
-9.9390697163
 30
0.0
 11
19.1204108215
 21
-10.862771015
 31
0.0
  0
LINE
  5
1CF
330
1F
100
AcDbEntity
  8
0
  6
Continuous
 62
     7
370
    15
100
AcDbLine
 10
19.1204108215
 20
-10.862771015
 30
0.0
 11
19.2969530293
 21
-10.5251086774
 31
0.0
  0
LINE
  5
1D0
330
1F
100
AcDbEntity
  8
0
  6
Continuous
 62
     7
370
    15
100
AcDbLine
 10
19.2969530293
 20
-10.5251086774
 30
0.0
 11
18.212943289
 21
-9.9581443916
 31
0.0
  0
LINE
  5
1D1
330
1F
100
AcDbEntity
  8
0
  6
Continuous
 62
     7
370
    15
100
AcDbLine
 10
18.212943289
 20
-9.9581443916
 30
0.0
 11
19.6646478345
 21
-9.8213749111
 31
0.0
  0
LINE
  5
1D2
330
1F
100
AcDbEntity
  8
0
  6
Continuous
 62
     7
370
    15
100
AcDbLine
 10
19.6646478345
 20
-9.8213749111
 30
0.0
 11
19.8265796527
 21
-9.5121216644
 31
0.0
  0
LINE
  5
1D3
330
1F
100
AcDbEntity
  8
0
  6
Continuous
 62
     7
370
    15
100
AcDbLine
 10
-19.2115214312
 20
-10.7354440992
 30
0.0
 11
-18.795355878
 21
-11.1516096525
 31
0.0
  0
LINE
  5
1D4
330
1F
100
AcDbEntity
  8
0
  6
Continuous
 62
     7
370
    15
100
AcDbLine
 10
-17.245703848
 20
-10.7581863895
 30
0.0
 11
-16.9171558831
 21
-10.4296384247
 31
0.0
  0
LINE
  5
1D5
330
1F
100
AcDbEntity
  8
0
  6
Continuous
 62
     7
370
    15
100
AcDbLine
 10
-16.9171558831
 20
-10.4296384247
 30
0.0
 11
-18.4917077889
 21
-8.8550865189
 31
0.0
  0
LINE
  5
1D6
330
1F
100
AcDbEntity
  8
0
  6
Continuous
 62
     7
370
    15
100
AcDbLine
 10
-18.4917077889
 20
-8.8550865189
 30
0.0
 11
-18.8214339465
 21
-9.1848126765
 31
0.0
  0
LINE
  5
1D7
330
1F
100
AcDbEntity
  8
0
  6
Continuous
 62
     7
370
    15
100
AcDbLine
 10
-16.8191325289
 20
-10.5260077251
 30
0.0
 11
-18.1206413296
 21
-11.8275165257
 31
0.0
  0
LINE
  5
1D8
330
1F
100
AcDbEntity
  8
0
  6
Continuous
 62
     7
370
    15
100
AcDbLine
 10
-18.1206413296
 20
-11.8275165257
 30
0.0
 11
-17.7252554809
 21
-12.2229023744
 31
0.0
  0
LINE
  5
1D9
330
1F
100
AcDbEntity
  8
0
  6
Continuous
 62
     7
370
    15
100
AcDbLine
 10
-17.7252554809
 20
-12.2229023744
 30
0.0
 11
-17.3952912146
 21
-11.8929381081
 31
0.0
  0
LINE
  5
1DA
330
1F
100
AcDbEntity
  8
0
  6
Continuous
 62
     7
370
    15
100
AcDbLine
 10
-16.903630359
 20
-13.0442657549
 30
0.0
 11
-16.513512591
 21
-13.4343835228
 31
0.0
  0
LINE
  5
1DB
330
1F
100
AcDbEntity
  8
0
  6
Continuous
 62
     7
370
    15
100
AcDbLine
 10
-14.6447991793
 20
-12.7037741152
 30
0.0
 11
-15.0579549437
 21
-12.2906183508
 31
0.0
  0
LINE
  5
1DC
330
1F
100
AcDbEntity
  8
0
  6
Continuous
 62
     7
370
    15
100
AcDbLine
 10
-15.0579549437
 20
-12.2906183508
 30
0.0
 11
-16.357221366
 21
-13.5898847732
 31
0.0
  0
LINE
  5
1DD
330
1F
100
AcDbEntity
  8
0
  6
Continuous
 62
     7
370
    15
100
AcDbLine
 10
-16.357221366
 20
-13.5898847732
 30
0.0
 11
-15.9440656017
 21
-14.0030405375
 31
0.0
  0
LINE
  5
1DE
330
1F
100
AcDbEntity
  8
0
  6
Continuous
 62
     7
370
    15
100
AcDbLine
 10
-15.9440656017
 20
-14.0030405375
 30
0.0
 11
-14.6447991793
 21
-12.7037741152
 31
0.0
  0
LINE
  5
1DF
330
1F
100
AcDbEntity
  8
0
  6
Continuous
 62
     7
370
    15
100
AcDbLine
 10
-14.45690232
 20
-12.8882379339
 30
0.0
 11
-15.7582156459
 21
-14.1895512598
 31
0.0
  0
LINE
  5
1E0
330
1F
100
AcDbEntity
  8
0
  6
Continuous
 62
     7
370
    15
100
AcDbLine
 10
-15.7582156459
 20
-14.1895512598
 30
0.0
 11
-15.3632126713
 21
-14.5845542345
 31
0.0
  0
LINE
  5
1E1
330
1F
100
AcDbEntity
  8
0
  6
Continuous
 62
     7
370
    15
100
AcDbLine
 10
-15.3632126713
 20
-14.5845542345
 30
0.0
 11
-15.0451167876
 21
-14.2664583508
 31
0.0
  0
LINE
  5
1E2
330
1F
100
AcDbEntity
  8
0
  6
Continuous
 62
     7
370
    15
100
AcDbLine
 10
-12.7345821744
 20
-17.2165455674
 30
0.0
 11
-12.4016425588
 21
-16.8836059518
 31
0.0
  0
LINE
  5
1E3
330
1F
100
AcDbEntity
  8
0
  6
Continuous
 62
     7
370
    15
100
AcDbLine
 10
-12.4016425588
 20
-16.8836059518
 30
0.0
 11
-13.3284789488
 21
-15.9567695618
 31
0.0
  0
LINE
  5
1E4
330
1F
100
AcDbEntity
  8
0
  6
Continuous
 62
     7
370
    15
100
AcDbLine
 10
-13.3284789488
 20
-15.9567695618
 30
0.0
 11
-12.3589996065
 21
-14.9872902196
 31
0.0
  0
LINE
  5
1E5
330
1F
100
AcDbEntity
  8
0
  6
Continuous
 62
     7
370
    15
100
AcDbLine
 10
-12.3589996065
 20
-14.9872902196
 30
0.0
 11
-12.7767218326
 21
-14.5695679936
 31
0.0
  0
LINE
  5
1E6
330
1F
100
AcDbEntity
  8
0
  6
Continuous
 62
     7
370
    15
100
AcDbLine
 10
-12.7767218326
 20
-14.5695679936
 30
0.0
 11
-14.0791407904
 21
-15.8719869514
 31
0.0
  0
LINE
  5
1E7
330
1F
100
AcDbEntity
  8
0
  6
Continuous
 62
     7
370
    15
100
AcDbLine
 10
-14.0791407904
 20
-15.8719869514
 30
0.0
 11
-12.7345821744
 21
-17.2165455674
 31
0.0
  0
LINE
  5
1E8
330
1F
100
AcDbEntity
  8
0
  6
Continuous
 62
     7
370
    15
100
AcDbLine
 10
-11.535691929
 20
-18.4546799267
 30
0.0
 11
-12.0065566915
 21
-17.9838151642
 31
0.0
  0
LINE
  5
1E9
330
1F
100
AcDbEntity
  8
0
  6
Continuous
 62
     7
370
    15
100
AcDbLine
 10
-8.8725666664
 20
-21.0776257416
 30
0.0
 11
-8.9069695138
 21
-19.9861775043
 31
0.0
  0
LINE
  5
1EA
330
1F
100
AcDbEntity
  8
0
  6
Continuous
 62
     7
370
    15
100
AcDbLine
 10
-8.9069695138
 20
-19.9861775043
 30
0.0
 11
-9.4492804244
 21
-19.9220900432
 31
0.0
  0
LINE
  5
1EB
330
1F
100
AcDbEntity
  8
0
  6
Continuous
 62
     7
370
    15
100
AcDbLine
 10
-11.338071926
 20
22.225
 30
0.0
 11
-0.8660254038
 21
22.225
 31
0.0
  0
LINE
  5
1EC
330
1F
100
AcDbEntity
  8
0
  6
Continuous
 62
     7
370
    15
100
AcDbLine
 10
-21.026924621
 20
-8.0684150415
 30
0.0
 11
-20.6439205137
 21
-8.4514191487
 31
0.0
  0
LINE
  5
1ED
330
1F
100
AcDbEntity
  8
0
  6
Continuous
 62
     7
370
    15
100
AcDbLine
 10
22.225
 20
-10.8467449034
 30
0.0
 11
22.225
 21
-0.8660254038
 31
0.0
  0
LINE
  5
1EE
330
1F
100
AcDbEntity
  8
0
  6
Continuous
 62
     7
370
    15
100
AcDbLine
 10
-22.225
 20
0.8660254038
 30
0.0
 11
-22.225
 21
10.8467449034
 31
0.0
  0
LINE
  5
1EF
330
1F
100
AcDbEntity
  8
0
  6
Continuous
 62
     7
370
    15
100
AcDbLine
 10
22.225
 20
0.8660254038
 30
0.0
 11
22.225
 21
10.8467449034
 31
0.0
  0
LINE
  5
1F0
330
1F
100
AcDbEntity
  8
0
  6
Continuous
 62
     7
370
    15
100
AcDbLine
 10
-22.225
 20
-10.8467449034
 30
0.0
 11
-22.225
 21
-0.8660254038
 31
0.0
  0
LINE
  5
1F1
330
1F
100
AcDbEntity
  8
0
  6
Continuous
 62
     7
370
    15
100
AcDbLine
 10
11.338071926
 20
22.225
 30
0.0
 11
0.8660254038
 21
22.225
 31
0.0
  0
LINE
  5
1F2
330
1F
100
AcDbEntity
  8
0
  6
Continuous
 62
     7
370
    15
100
AcDbLine
 10
0.8660254038
 20
-22.225
 30
0.0
 11
10.8467449034
 21
-22.225
 31
0.0
  0
LINE
  5
1F3
330
1F
100
AcDbEntity
  8
0
  6
Continuous
 62
     7
370
    15
100
AcDbLine
 10
17.8838036786
 20
-8.9260827033
 30
0.0
 11
18.965378354
 21
-9.4918294566
 31
0.0
  0
LINE
  5
1F4
330
1F
100
AcDbEntity
  8
0
  6
Continuous
 62
     7
370
    15
100
AcDbLine
 10
14.0108256122
 20
-16.0345413113
 30
0.0
 11
13.6342022356
 21
-16.3584049477
 31
0.0
  0
LINE
  5
1F5
330
1F
100
AcDbEntity
  8
0
  6
Continuous
 62
     7
370
    15
100
AcDbLine
 10
13.6342022356
 20
-16.3584049477
 30
0.0
 11
13.351328859
 21
-15.6420900126
 31
0.0
  0
LINE
  5
1F6
330
1F
100
AcDbEntity
  8
0
  6
Continuous
 62
     7
370
    15
100
AcDbLine
 10
13.351328859
 20
-15.6420900126
 30
0.0
 11
14.0108256122
 21
-16.0345413113
 31
0.0
  0
LINE
  5
1F7
330
1F
100
AcDbEntity
  8
0
  6
Continuous
 62
     7
370
    15
100
AcDbLine
 10
-16.7490316652
 20
-11.2480181428
 30
0.0
 11
-17.0694239618
 21
-11.5684104394
 31
0.0
  0
LINE
  5
1F8
330
1F
100
AcDbEntity
  8
0
  6
Continuous
 62
     7
370
    15
100
AcDbLine
 10
11.657078384
 20
-16.6272833146
 30
0.0
 11
11.9614615009
 21
-16.4044748731
 31
0.0
  0
LINE
  5
1F9
330
1F
100
AcDbEntity
  8
0
  6
Continuous
 62
     7
370
    15
100
AcDbLine
 10
11.9992050074
 20
-17.0948157822
 30
0.0
 11
11.657078384
 21
-16.6272833146
 31
0.0
  0
LINE
  5
1FA
330
1F
100
AcDbEntity
  8
0
  6
Continuous
 62
     7
370
    15
100
AcDbLine
 10
12.3035881242
 20
-16.8720073406
 30
0.0
 11
11.9992050074
 21
-17.0948157822
 31
0.0
  0
LINE
  5
1FB
330
1F
100
AcDbEntity
  8
0
  6
Continuous
 62
     7
370
    15
100
AcDbLine
 10
16.0528425969
 20
-12.4342777004
 30
0.0
 11
16.2740276618
 21
-12.1298945835
 31
0.0
  0
LINE
  5
1FC
330
1F
100
AcDbEntity
  8
0
  6
Continuous
 62
     7
370
    15
100
AcDbLine
 10
16.5203750644
 20
-12.7739692588
 30
0.0
 11
16.0528425969
 21
-12.4342777004
 31
0.0
  0
LINE
  5
1FD
330
1F
100
AcDbEntity
  8
0
  6
Continuous
 62
     7
370
    15
100
AcDbLine
 10
16.7415601294
 20
-12.4695861419
 30
0.0
 11
16.5203750644
 21
-12.7739692588
 31
0.0
  0
LINE
  5
1FE
330
1F
100
AcDbEntity
  8
0
  6
Continuous
 62
     7
370
    15
100
AcDbLine
 10
17.0
 20
2.2805197818
 30
0.0
 11
15.0
 21
2.2805197818
 31
0.0
  0
LINE
  5
1FF
330
1F
100
AcDbEntity
  8
0
  6
Continuous
 62
     7
370
    15
100
AcDbLine
 10
18.6687598035
 20
-8.0976167944
 30
0.0
 11
18.7933539593
 21
-7.8123083529
 31
0.0
  0
LINE
  5
200
330
1F
100
AcDbEntity
  8
0
  6
Continuous
 62
     7
370
    15
100
AcDbLine
 10
19.8635649983
 20
-8.6195323788
 30
0.0
 11
18.6687598035
 21
-8.0976167944
 31
0.0
  0
LINE
  5
201
330
1F
100
AcDbEntity
  8
0
  6
Continuous
 62
     7
370
    15
100
AcDbLine
 10
19.9881591541
 20
-8.3342239373
 30
0.0
 11
19.8635649983
 21
-8.6195323788
 31
0.0
  0
LINE
  5
202
330
1F
100
AcDbEntity
  8
0
  6
Continuous
 62
     7
370
    15
100
AcDbLine
 10
-10.7596029285
 20
-17.2193358925
 30
0.0
 11
-10.7632372629
 21
-17.2228353185
 31
0.0
  0
LINE
  5
203
330
1F
100
AcDbEntity
  8
0
  6
Continuous
 62
     7
370
    15
100
AcDbLine
 10
17.0
 20
-2.2479
 30
0.0
 11
15.0
 21
-2.2479
 31
0.0
  0
LINE
  5
204
330
1F
100
AcDbEntity
  8
0
  6
Continuous
 62
     7
370
    15
100
AcDbLine
 10
-17.0
 20
2.2479
 30
0.0
 11
-15.0
 21
2.2479
 31
0.0
  0
LINE
  5
205
330
1F
100
AcDbEntity
  8
0
  6
Continuous
 62
     7
370
    15
100
AcDbLine
 10
-17.0
 20
-2.2479
 30
0.0
 11
-15.0
 21
-2.2479
 31
0.0
  0
LINE
  5
206
330
1F
100
AcDbEntity
  8
0
  6
Continuous
 62
     7
370
    15
100
AcDbLine
 10
17.0
 20
2.2479
 30
0.0
 11
15.0
 21
2.2479
 31
0.0
  0
LINE
  5
207
330
1F
100
AcDbEntity
  8
0
  6
PHANTOM
 62
     7
370
     0
100
AcDbLine
 10
17.0
 20
-4.699
 30
0.0
 11
17.0
 21
-2.2479
 31
0.0
  0
LINE
  5
208
330
1F
100
AcDbEntity
  8
0
  6
PHANTOM
 62
     7
370
     0
100
AcDbLine
 10
17.0
 20
2.2479
 30
0.0
 11
17.0
 21
4.699
 31
0.0
  0
LINE
  5
209
330
1F
100
AcDbEntity
  8
0
  6
PHANTOM
 62
     7
370
     0
100
AcDbLine
 10
15.0
 20
-4.699
 30
0.0
 11
15.0
 21
-2.2479
 31
0.0
  0
LINE
  5
20A
330
1F
100
AcDbEntity
  8
0
  6
PHANTOM
 62
     7
370
     0
100
AcDbLine
 10
-17.0
 20
-4.699
 30
0.0
 11
-17.0
 21
-2.2479
 31
0.0
  0
LINE
  5
20B
330
1F
100
AcDbEntity
  8
0
  6
PHANTOM
 62
     7
370
     0
100
AcDbLine
 10
-15.0
 20
-4.699
 30
0.0
 11
-15.0
 21
-2.2479
 31
0.0
  0
LINE
  5
20C
330
1F
100
AcDbEntity
  8
0
  6
PHANTOM
 62
     7
370
     0
100
AcDbLine
 10
-15.0
 20
2.2479
 30
0.0
 11
-15.0
 21
4.699
 31
0.0
  0
LINE
  5
20D
330
1F
100
AcDbEntity
  8
0
  6
PHANTOM
 62
     7
370
     0
100
AcDbLine
 10
-17.0
 20
2.2479
 30
0.0
 11
-17.0
 21
4.699
 31
0.0
  0
LINE
  5
20E
330
1F
100
AcDbEntity
  8
0
  6
PHANTOM
 62
     7
370
     0
100
AcDbLine
 10
15.0
 20
2.2479
 30
0.0
 11
15.0
 21
4.699
 31
0.0
  0
ARC
  5
20F
330
1F
100
AcDbEntity
  8
0
  6
Continuous
 62
     7
370
    15
100
AcDbCircle
 10
17.0
 20
0.0
 30
0.0
 40
2.280519781795759
100
AcDbArc
 50
270.0
 51
90.0
  0
ARC
  5
210
330
1F
100
AcDbEntity
  8
0
  6
Continuous
 62
     7
370
    15
100
AcDbCircle
 10
17.0
 20
0.0
 30
0.0
 40
4.699000000000018
100
AcDbArc
 50
6.6491212874
 51
90.0
  0
ARC
  5
211
330
1F
100
AcDbEntity
  8
0
  6
Continuous
 62
     7
370
    15
100
AcDbCircle
 10
17.0
 20
0.0
 30
0.0
 40
4.699000000000027
100
AcDbArc
 50
270.0
 51
353.3508787126
  0
ARC
  5
212
330
1F
100
AcDbEntity
  8
0
  6
Continuous
 62
     7
370
    15
100
AcDbCircle
 10
-15.0
 20
0.0
 30
0.0
 40
2.280519781795758
100
AcDbArc
 50
270.0
 51
90.0
  0
ARC
  5
213
330
1F
100
AcDbEntity
  8
0
  6
Continuous
 62
     7
370
    15
100
AcDbCircle
 10
-15.0
 20
0.0
 30
0.0
 40
4.699000000000002
100
AcDbArc
 50
270.0
 51
90.0
  0
ARC
  5
214
330
1F
100
AcDbEntity
  8
0
  6
Continuous
 62
     7
370
    15
100
AcDbCircle
 10
15.0
 20
0.0
 30
0.0
 40
4.699000000000002
100
AcDbArc
 50
90.0
 51
270.0
  0
ARC
  5
215
330
1F
100
AcDbEntity
  8
0
  6
Continuous
 62
     7
370
    15
100
AcDbCircle
 10
0.0
 20
0.0
 30
0.0
 40
24.9500000000004
100
AcDbArc
 50
298.2048295913
 51
331.7951704087
  0
ARC
  5
216
330
1F
100
AcDbEntity
  8
0
  6
Continuous
 62
     7
370
    15
100
AcDbCircle
 10
0.0
 20
-21.225
 30
0.0
 40
0.2499999999999975
100
AcDbArc
 50
30.0
 51
150.0
  0
ARC
  5
217
330
1F
100
AcDbEntity
  8
0
  6
Continuous
 62
     7
370
    15
100
AcDbCircle
 10
-10.8467449034
 20
-20.225
 30
0.0
 40
2.000000000000004
100
AcDbArc
 50
241.7951704087
 51
270.0
  0
ARC
  5
218
330
1F
100
AcDbEntity
  8
0
  6
Continuous
 62
     7
370
    15
100
AcDbCircle
 10
-20.225
 20
-10.8467449034
 30
0.0
 40
2.0
100
AcDbArc
 50
180.0
 51
208.2048295913
  0
ARC
  5
219
330
1F
100
AcDbEntity
  8
0
  6
Continuous
 62
     7
370
    15
100
AcDbCircle
 10
-17.0
 20
0.0
 30
0.0
 40
4.699000000000023
100
AcDbArc
 50
186.6491212874
 51
270.0
  0
ARC
  5
21A
330
1F
100
AcDbEntity
  8
0
  6
Continuous
 62
     7
370
    15
100
AcDbCircle
 10
-17.0
 20
0.0
 30
0.0
 40
4.699000000000018
100
AcDbArc
 50
90.0
 51
173.3508787126
  0
ARC
  5
21B
330
1F
100
AcDbEntity
  8
0
  6
Continuous
 62
     7
370
    15
100
AcDbCircle
 10
-20.225
 20
10.8467449034
 30
0.0
 40
2.000000000000064
100
AcDbArc
 50
151.7951704087
 51
180.0
  0
ARC
  5
21C
330
1F
100
AcDbEntity
  8
0
  6
Continuous
 62
     7
370
    15
100
AcDbCircle
 10
0.0
 20
0.0
 30
0.0
 40
24.9499999999999
100
AcDbArc
 50
117.0283773747
 51
151.7951704087
  0
ARC
  5
21D
330
1F
100
AcDbEntity
  8
0
  6
Continuous
 62
     7
370
    15
100
AcDbCircle
 10
0.0
 20
21.225
 30
0.0
 40
0.2499999999999995
100
AcDbArc
 50
210.0
 51
330.0
  0
ARC
  5
21E
330
1F
100
AcDbEntity
  8
0
  6
Continuous
 62
     7
370
    15
100
AcDbCircle
 10
20.225
 20
10.8467449034
 30
0.0
 40
2.000000000000064
100
AcDbArc
 50
0.0
 51
28.2048295913
  0
ARC
  5
21F
330
1F
100
AcDbEntity
  8
0
  6
Continuous
 62
     7
370
    15
100
AcDbCircle
 10
0.0
 20
0.0
 30
0.0
 40
24.95000000000039
100
AcDbArc
 50
208.2048295913
 51
241.7951704087
  0
ARC
  5
220
330
1F
100
AcDbEntity
  8
0
  6
Continuous
 62
     7
370
    15
100
AcDbCircle
 10
20.225
 20
-10.8467449034
 30
0.0
 40
2.000000000000003
100
AcDbArc
 50
331.7951704087
 51
0.0
  0
ARC
  5
221
330
1F
100
AcDbEntity
  8
0
  6
Continuous
 62
     7
370
    15
100
AcDbCircle
 10
0.0
 20
0.0
 30
0.0
 40
24.94999999999991
100
AcDbArc
 50
28.2048295913
 51
62.9716226253
  0
ARC
  5
222
330
1F
100
AcDbEntity
  8
0
  6
Continuous
 62
     7
370
    15
100
AcDbCircle
 10
10.8467449034
 20
-20.225
 30
0.0
 40
2.000000000000005
100
AcDbArc
 50
270.0
 51
298.2048295913
  0
ARC
  5
223
330
1F
100
AcDbEntity
  8
0
  6
Continuous
 62
     7
370
    15
100
AcDbCircle
 10
-17.0
 20
0.0
 30
0.0
 40
2.280519781795759
100
AcDbArc
 50
90.0
 51
270.0
  0
ARC
  5
224
330
1F
100
AcDbEntity
  8
0
  6
Continuous
 62
     7
370
    15
100
AcDbCircle
 10
15.0
 20
0.0
 30
0.0
 40
2.280519781795758
100
AcDbArc
 50
90.0
 51
270.0
  0
ARC
  5
225
330
1F
100
AcDbEntity
  8
0
  6
Continuous
 62
     7
370
    15
100
AcDbCircle
 10
15.0
 20
0.0
 30
0.0
 40
2.247899999999997
100
AcDbArc
 50
90.0
 51
270.0
  0
ARC
  5
226
330
1F
100
AcDbEntity
  8
0
  6
Continuous
 62
     7
370
    15
100
AcDbCircle
 10
17.0
 20
0.0
 30
0.0
 40
2.247899999999998
100
AcDbArc
 50
270.0
 51
90.0
  0
ARC
  5
227
330
1F
100
AcDbEntity
  8
0
  6
Continuous
 62
     7
370
    15
100
AcDbCircle
 10
-17.0
 20
0.0
 30
0.0
 40
2.247899999999998
100
AcDbArc
 50
90.0
 51
270.0
  0
ARC
  5
228
330
1F
100
AcDbEntity
  8
0
  6
Continuous
 62
     7
370
    15
100
AcDbCircle
 10
-15.0
 20
0.0
 30
0.0
 40
2.247899999999997
100
AcDbArc
 50
270.0
 51
90.0
  0
ENDSEC
  0
SECTION
  2
OBJECTS
  0
DICTIONARY
  5
C
330
0
100
AcDbDictionary
281
     1
  3
ACAD_GROUP
350
D
  3
ACAD_LAYOUT
350
1A
  3
ACAD_MLEADERSTYLE
350
24D
  3
ACAD_MLINESTYLE
350
17
  3
ACAD_PLOTSETTINGS
350
19
  3
ACAD_PLOTSTYLENAME
350
E
  3
ACAD_SCALELIST
350
229
  3
ACAD_VISUALSTYLE
350
2A
  3
AcDbVariableDictionary
350
24B
  0
DICTIONARY
  5
D
102
{ACAD_REACTORS
330
C
102
}
330
C
100
AcDbDictionary
281
     1
  0
DICTIONARY
  5
1A
102
{ACAD_REACTORS
330
C
102
}
330
C
100
AcDbDictionary
281
     1
  3
Layout1
350
1E
  3
Layout2
350
26
  3
Model
350
22
  0
DICTIONARY
  5
24D
102
{ACAD_REACTORS
330
C
102
}
330
C
100
AcDbDictionary
281
     1
  0
DICTIONARY
  5
17
102
{ACAD_REACTORS
330
C
102
}
330
C
100
AcDbDictionary
281
     1
  3
Standard
350
18
  0
DICTIONARY
  5
19
102
{ACAD_REACTORS
330
C
102
}
330
C
100
AcDbDictionary
281
     1
  0
ACDBDICTIONARYWDFLT
  5
E
102
{ACAD_REACTORS
330
C
102
}
330
C
100
AcDbDictionary
281
     1
  3
Normal
350
F
100
AcDbDictionaryWithDefault
340
F
  0
DICTIONARY
  5
229
102
{ACAD_REACTORS
330
C
102
}
330
C
100
AcDbDictionary
281
     1
  3
A0
350
22A
  3
A1
350
22B
  3
A2
350
22C
  3
A3
350
22D
  3
A4
350
22E
  3
A5
350
22F
  3
A6
350
230
  3
A7
350
231
  3
A8
350
232
  3
A9
350
233
  3
B0
350
234
  3
B1
350
235
  3
B2
350
236
  3
B3
350
237
  3
B4
350
238
  3
B5
350
239
  3
B6
350
23A
  3
B7
350
23B
  3
B8
350
23C
  3
B9
350
23D
  3
C0
350
23E
  3
C1
350
23F
  3
C2
350
240
  3
C3
350
241
  3
C4
350
242
  3
C5
350
243
  3
C6
350
244
  3
C7
350
245
  3
C8
350
246
  3
C9
350
247
  3
D0
350
248
  3
D1
350
249
  3
D2
350
24A
  0
DICTIONARY
  5
2A
102
{ACAD_REACTORS
330
C
102
}
330
C
100
AcDbDictionary
281
     1
  3
2dWireframe
350
2F
  3
3D Hidden
350
31
  3
3dWireframe
350
30
  3
Basic
350
32
  3
Brighten
350
36
  3
ColorChange
350
3A
  3
Conceptual
350
34
  3
Dim
350
35
  3
Facepattern
350
39
  3
Flat
350
2B
  3
FlatWithEdges
350
2C
  3
Gouraud
350
2D
  3
GouraudWithEdges
350
2E
  3
Linepattern
350
38
  3
Realistic
350
33
  3
Thicken
350
37
  0
DICTIONARY
  5
24B
102
{ACAD_REACTORS
330
C
102
}
330
C
100
AcDbDictionary
281
     1
  3
CANNOSCALE
350
250
  3
DIMASSOC
350
251
  3
HIDETEXT
350
252
  3
PSOLHEIGHT
350
24F
  3
PSOLWIDTH
350
24E
  0
LAYOUT
  5
1E
102
{ACAD_REACTORS
330
1A
102
}
330
1A
100
AcDbPlotSettings
  1

  2
none_device
  4

  6

 40
0.0
 41
0.0
 42
0.0
 43
0.0
 44
0.0
 45
0.0
 46
0.0
 47
0.0
 48
0.0
 49
0.0
140
0.0
141
0.0
142
1.0
143
1.0
 70
   688
 72
     0
 73
     0
 74
     5
  7

 75
    16
147
1.0
148
0.0
149
0.0
100
AcDbLayout
  1
Layout1
 70
     1
 71
     1
 10
0.0
 20
0.0
 11
420.0
 21
297.0
 12
0.0
 22
0.0
 32
0.0
 14
1.0000000000E+20
 24
1.0000000000E+20
 34
1.0000000000E+20
 15
-1.0000000000E+20
 25
-1.0000000000E+20
 35
-1.0000000000E+20
146
0.0
 13
0.0
 23
0.0
 33
0.0
 16
1.0
 26
0.0
 36
0.0
 17
0.0
 27
1.0
 37
0.0
 76
     0
330
1B
  0
LAYOUT
  5
26
102
{ACAD_REACTORS
330
1A
102
}
330
1A
100
AcDbPlotSettings
  1

  2
none_device
  4

  6

 40
0.0
 41
0.0
 42
0.0
 43
0.0
 44
0.0
 45
0.0
 46
0.0
 47
0.0
 48
0.0
 49
0.0
140
0.0
141
0.0
142
1.0
143
1.0
 70
   688
 72
     0
 73
     0
 74
     5
  7

 75
    16
147
1.0
148
0.0
149
0.0
100
AcDbLayout
  1
Layout2
 70
     1
 71
     2
 10
0.0
 20
0.0
 11
0.0
 21
0.0
 12
0.0
 22
0.0
 32
0.0
 14
0.0
 24
0.0
 34
0.0
 15
0.0
 25
0.0
 35
0.0
146
0.0
 13
0.0
 23
0.0
 33
0.0
 16
1.0
 26
0.0
 36
0.0
 17
0.0
 27
1.0
 37
0.0
 76
     0
330
23
  0
LAYOUT
  5
22
102
{ACAD_REACTORS
330
1A
102
}
330
1A
100
AcDbPlotSettings
  1

  2
none_device
  4
ANSI_A_(11.00_x_8.50_Inches)
  6

 40
6.35
 41
19.05
 42
6.35000508
 43
19.05000254
 44
279.4
 45
215.9
 46
133.34999746
 47
88.89999873
 48
0.0
 49
0.0
140
0.0
141
0.0
142
0.1893138358
143
1.0
 70
  1696
 72
     0
 73
     0
 74
     0
  7

 75
     0
147
0.0179189148
148
0.0
149
0.0
100
AcDbLayout
  1
Model
 70
     1
 71
     0
 10
0.0
 20
0.0
 11
420.0
 21
297.0
 12
0.0
 22
0.0
 32
0.0
 14
-22.225
 24
-22.225
 34
0.0
 15
22.225
 25
22.225
 35
0.0
146
0.0
 13
0.0
 23
0.0
 33
0.0
 16
1.0
 26
0.0
 36
0.0
 17
0.0
 27
1.0
 37
0.0
 76
     0
330
1F
331
29
  0
MLINESTYLE
  5
18
102
{ACAD_REACTORS
330
17
102
}
330
17
100
AcDbMlineStyle
  2
Standard
 70
     0
  3

 62
   256
 51
90.0
 52
90.0
 71
     2
 49
0.5
 62
   256
  6
BYLAYER
 49
-0.5
 62
   256
  6
BYLAYER
  0
ACDBPLACEHOLDER
  5
F
102
{ACAD_REACTORS
330
E
102
}
330
E
  0
SCALE
  5
22A
102
{ACAD_REACTORS
330
229
102
}
330
229
100
AcDbScale
 70
     0
300
1:1
140
1.0
141
1.0
290
     1
  0
SCALE
  5
22B
102
{ACAD_REACTORS
330
229
102
}
330
229
100
AcDbScale
 70
     0
300
1:2
140
1.0
141
2.0
290
     0
  0
SCALE
  5
22C
102
{ACAD_REACTORS
330
229
102
}
330
229
100
AcDbScale
 70
     0
300
1:4
140
1.0
141
4.0
290
     0
  0
SCALE
  5
22D
102
{ACAD_REACTORS
330
229
102
}
330
229
100
AcDbScale
 70
     0
300
1:5
140
1.0
141
5.0
290
     0
  0
SCALE
  5
22E
102
{ACAD_REACTORS
330
229
102
}
330
229
100
AcDbScale
 70
     0
300
1:8
140
1.0
141
8.0
290
     0
  0
SCALE
  5
22F
102
{ACAD_REACTORS
330
229
102
}
330
229
100
AcDbScale
 70
     0
300
1:10
140
1.0
141
10.0
290
     0
  0
SCALE
  5
230
102
{ACAD_REACTORS
330
229
102
}
330
229
100
AcDbScale
 70
     0
300
1:16
140
1.0
141
16.0
290
     0
  0
SCALE
  5
231
102
{ACAD_REACTORS
330
229
102
}
330
229
100
AcDbScale
 70
     0
300
1:20
140
1.0
141
20.0
290
     0
  0
SCALE
  5
232
102
{ACAD_REACTORS
330
229
102
}
330
229
100
AcDbScale
 70
     0
300
1:30
140
1.0
141
30.0
290
     0
  0
SCALE
  5
233
102
{ACAD_REACTORS
330
229
102
}
330
229
100
AcDbScale
 70
     0
300
1:40
140
1.0
141
40.0
290
     0
  0
SCALE
  5
234
102
{ACAD_REACTORS
330
229
102
}
330
229
100
AcDbScale
 70
     0
300
1:50
140
1.0
141
50.0
290
     0
  0
SCALE
  5
235
102
{ACAD_REACTORS
330
229
102
}
330
229
100
AcDbScale
 70
     0
300
1:100
140
1.0
141
100.0
290
     0
  0
SCALE
  5
236
102
{ACAD_REACTORS
330
229
102
}
330
229
100
AcDbScale
 70
     0
300
2:1
140
2.0
141
1.0
290
     0
  0
SCALE
  5
237
102
{ACAD_REACTORS
330
229
102
}
330
229
100
AcDbScale
 70
     0
300
4:1
140
4.0
141
1.0
290
     0
  0
SCALE
  5
238
102
{ACAD_REACTORS
330
229
102
}
330
229
100
AcDbScale
 70
     0
300
8:1
140
8.0
141
1.0
290
     0
  0
SCALE
  5
239
102
{ACAD_REACTORS
330
229
102
}
330
229
100
AcDbScale
 70
     0
300
10:1
140
10.0
141
1.0
290
     0
  0
SCALE
  5
23A
102
{ACAD_REACTORS
330
229
102
}
330
229
100
AcDbScale
 70
     0
300
100:1
140
100.0
141
1.0
290
     0
  0
SCALE
  5
23B
102
{ACAD_REACTORS
330
229
102
}
330
229
100
AcDbScale
 70
     0
300
1/128" = 1'-0"
140
0.0078125
141
12.0
290
     0
  0
SCALE
  5
23C
102
{ACAD_REACTORS
330
229
102
}
330
229
100
AcDbScale
 70
     0
300
1/64" = 1'-0"
140
0.015625
141
12.0
290
     0
  0
SCALE
  5
23D
102
{ACAD_REACTORS
330
229
102
}
330
229
100
AcDbScale
 70
     0
300
1/32" = 1'-0"
140
0.03125
141
12.0
290
     0
  0
SCALE
  5
23E
102
{ACAD_REACTORS
330
229
102
}
330
229
100
AcDbScale
 70
     0
300
1/16" = 1'-0"
140
0.0625
141
12.0
290
     0
  0
SCALE
  5
23F
102
{ACAD_REACTORS
330
229
102
}
330
229
100
AcDbScale
 70
     0
300
3/32" = 1'-0"
140
0.09375
141
12.0
290
     0
  0
SCALE
  5
240
102
{ACAD_REACTORS
330
229
102
}
330
229
100
AcDbScale
 70
     0
300
1/8" = 1'-0"
140
0.125
141
12.0
290
     0
  0
SCALE
  5
241
102
{ACAD_REACTORS
330
229
102
}
330
229
100
AcDbScale
 70
     0
300
3/16" = 1'-0"
140
0.1875
141
12.0
290
     0
  0
SCALE
  5
242
102
{ACAD_REACTORS
330
229
102
}
330
229
100
AcDbScale
 70
     0
300
1/4" = 1'-0"
140
0.25
141
12.0
290
     0
  0
SCALE
  5
243
102
{ACAD_REACTORS
330
229
102
}
330
229
100
AcDbScale
 70
     0
300
3/8" = 1'-0"
140
0.375
141
12.0
290
     0
  0
SCALE
  5
244
102
{ACAD_REACTORS
330
229
102
}
330
229
100
AcDbScale
 70
     0
300
1/2" = 1'-0"
140
0.5
141
12.0
290
     0
  0
SCALE
  5
245
102
{ACAD_REACTORS
330
229
102
}
330
229
100
AcDbScale
 70
     0
300
3/4" = 1'-0"
140
0.75
141
12.0
290
     0
  0
SCALE
  5
246
102
{ACAD_REACTORS
330
229
102
}
330
229
100
AcDbScale
 70
     0
300
1" = 1'-0"
140
1.0
141
12.0
290
     0
  0
SCALE
  5
247
102
{ACAD_REACTORS
330
229
102
}
330
229
100
AcDbScale
 70
     0
300
1-1/2" = 1'-0"
140
1.5
141
12.0
290
     0
  0
SCALE
  5
248
102
{ACAD_REACTORS
330
229
102
}
330
229
100
AcDbScale
 70
     0
300
3" = 1'-0"
140
3.0
141
12.0
290
     0
  0
SCALE
  5
249
102
{ACAD_REACTORS
330
229
102
}
330
229
100
AcDbScale
 70
     0
300
6" = 1'-0"
140
6.0
141
12.0
290
     0
  0
SCALE
  5
24A
102
{ACAD_REACTORS
330
229
102
}
330
229
100
AcDbScale
 70
     0
300
1'-0" = 1'-0"
140
12.0
141
12.0
290
     0
  0
VISUALSTYLE
  5
2F
102
{ACAD_REACTORS
330
2A
102
}
330
2A
100
AcDbVisualStyle
  2
2dWireframe
 70
     4
 71
     0
 72
     2
 73
     0
 90
        0
 40
-0.6
 41
-30.0
 62
     5
 63
     7
 74
     1
 91
        4
 64
     7
 65
   257
 75
     1
175
     1
 42
1.0
 92
        0
 66
   257
 43
1.0
 76
     1
 77
     6
 78
     2
 67
     7
 79
     5
170
     0
171
     0
290
     0
174
     0
 93
        1
 44
0.0
173
     0
291
     0
 45
0.0
1001
ACAD
1000
AcDbSavedByObjectVersion
1070
     0
  0
VISUALSTYLE
  5
31
102
{ACAD_REACTORS
330
2A
102
}
330
2A
100
AcDbVisualStyle
  2
3D Hidden
 70
     6
 71
     1
 72
     2
 73
     2
 90
        0
 40
-0.6
 41
-30.0
 62
     5
 63
     7
 74
     2
 91
        2
 64
     7
 65
   257
 75
     2
175
     1
 42
40.0
 92
        0
 66
   257
 43
1.0
 76
     1
 77
     6
 78
     2
 67
     7
 79
     3
170
     0
171
     0
290
     0
174
     0
 93
        1
 44
0.0
173
     0
291
     0
 45
0.0
1001
ACAD
1000
AcDbSavedByObjectVersion
1070
     0
  0
VISUALSTYLE
  5
30
102
{ACAD_REACTORS
330
2A
102
}
330
2A
100
AcDbVisualStyle
  2
3dWireframe
 70
     5
 71
     0
 72
     2
 73
     0
 90
        0
 40
-0.6
 41
-30.0
 62
     5
 63
     7
 74
     1
 91
        4
 64
     7
 65
   257
 75
     1
175
     1
 42
1.0
 92
        0
 66
   257
 43
1.0
 76
     1
 77
     6
 78
     2
 67
     7
 79
     5
170
     0
171
     0
290
     0
174
     0
 93
        1
 44
0.0
173
     0
291
     0
 45
0.0
1001
ACAD
1000
AcDbSavedByObjectVersion
1070
     0
  0
VISUALSTYLE
  5
32
102
{ACAD_REACTORS
330
2A
102
}
330
2A
100
AcDbVisualStyle
  2
Basic
 70
     7
 71
     1
 72
     0
 73
     1
 90
        0
 40
-0.6
 41
-30.0
 62
     5
 63
     7
 74
     0
 91
        4
 64
     7
 65
   257
 75
     1
175
     1
 42
1.0
 92
        8
 66
     7
 43
1.0
 76
     1
 77
     6
 78
     2
 67
     7
 79
     5
170
     0
171
     0
290
     0
174
     0
 93
        1
 44
0.0
173
     0
291
     1
 45
0.0
1001
ACAD
1000
AcDbSavedByObjectVersion
1070
     0
  0
VISUALSTYLE
  5
36
102
{ACAD_REACTORS
330
2A
102
}
330
2A
100
AcDbVisualStyle
  2
Brighten
 70
    12
 71
     2
 72
     2
 73
     0
 90
        0
 40
-0.6
 41
-30.0
 62
     5
 63
     7
 74
     1
 91
        4
 64
     7
 65
   257
 75
     1
175
     1
 42
1.0
 92
        8
 66
     7
 43
1.0
 76
     1
 77
     6
 78
     2
 67
     7
 79
     5
170
     0
171
     0
290
     0
174
     0
 93
        1
 44
50.0
173
     0
291
     1
 45
0.0
1001
ACAD
1000
AcDbSavedByObjectVersion
1070
     0
  0
VISUALSTYLE
  5
3A
102
{ACAD_REACTORS
330
2A
102
}
330
2A
100
AcDbVisualStyle
  2
ColorChange
 70
    16
 71
     2
 72
     2
 73
     3
 90
        0
 40
-0.6
 41
-30.0
 62
     5
 63
     8
 74
     1
 91
        4
 64
     7
 65
   257
 75
     1
175
     1
 42
1.0
 92
        8
 66
     8
 43
1.0
 76
     1
 77
     6
 78
     2
 67
     7
 79
     5
170
     0
171
     0
290
     0
174
     0
 93
        1
 44
0.0
173
     0
291
     1
 45
0.0
1001
ACAD
1000
AcDbSavedByObjectVersion
1070
     0
  0
VISUALSTYLE
  5
34
102
{ACAD_REACTORS
330
2A
102
}
330
2A
100
AcDbVisualStyle
  2
Conceptual
 70
     9
 71
     3
 72
     2
 73
     0
 90
        0
 40
-0.6
 41
-30.0
 62
     5
 63
     7
 74
     2
 91
        2
 64
     7
 65
   257
 75
     1
175
     1
 42
40.0
 92
        8
 66
     7
 43
1.0
 76
     1
 77
     6
 78
     2
 67
     7
 79
     3
170
     0
171
     0
290
     0
174
     0
 93
        1
 44
0.0
173
     0
291
     0
 45
0.0
1001
ACAD
1000
AcDbSavedByObjectVersion
1070
     0
  0
VISUALSTYLE
  5
35
102
{ACAD_REACTORS
330
2A
102
}
330
2A
100
AcDbVisualStyle
  2
Dim
 70
    11
 71
     2
 72
     2
 73
     0
 90
        0
 40
-0.6
 41
-30.0
 62
     5
 63
     7
 74
     1
 91
        4
 64
     7
 65
   257
 75
     1
175
     1
 42
1.0
 92
        8
 66
     7
 43
1.0
 76
     1
 77
     6
 78
     2
 67
     7
 79
     5
170
     0
171
     0
290
     0
174
     0
 93
        1
 44
-50.0
173
     0
291
     1
 45
0.0
1001
ACAD
1000
AcDbSavedByObjectVersion
1070
     0
  0
VISUALSTYLE
  5
39
102
{ACAD_REACTORS
330
2A
102
}
330
2A
100
AcDbVisualStyle
  2
Facepattern
 70
    15
 71
     2
 72
     2
 73
     0
 90
        0
 40
-0.6
 41
-30.0
 62
     5
 63
     7
 74
     1
 91
        4
 64
     7
 65
   257
 75
     1
175
     1
 42
1.0
 92
        8
 66
     7
 43
1.0
 76
     1
 77
     6
 78
     2
 67
     7
 79
     5
170
     0
171
     0
290
     0
174
     0
 93
        1
 44
0.0
173
     0
291
     1
 45
0.0
1001
ACAD
1000
AcDbSavedByObjectVersion
1070
     0
  0
VISUALSTYLE
  5
2B
102
{ACAD_REACTORS
330
2A
102
}
330
2A
100
AcDbVisualStyle
  2
Flat
 70
     0
 71
     2
 72
     1
 73
     1
 90
        2
 40
-0.6
 41
30.0
 62
     5
 63
     7
 74
     0
 91
        4
 64
     7
 65
   257
 75
     1
175
     1
 42
1.0
 92
        8
 66
     7
 43
1.0
 76
     1
 77
     6
 78
     2
 67
     7
 79
     5
170
     0
171
     0
290
     0
174
     0
 93
       13
 44
0.0
173
     0
291
     1
 45
0.0
1001
ACAD
1000
AcDbSavedByObjectVersion
1070
     0
  0
VISUALSTYLE
  5
2C
102
{ACAD_REACTORS
330
2A
102
}
330
2A
100
AcDbVisualStyle
  2
FlatWithEdges
 70
     1
 71
     2
 72
     1
 73
     1
 90
        2
 40
-0.6
 41
30.0
 62
     5
 63
     7
 74
     1
 91
        4
 64
     7
 65
   257
 75
     1
175
     1
 42
1.0
 92
        0
 66
   257
 43
1.0
 76
     1
 77
     6
 78
     2
 67
     7
 79
     5
170
     0
171
     0
290
     0
174
     0
 93
       13
 44
0.0
173
     0
291
     1
 45
0.0
1001
ACAD
1000
AcDbSavedByObjectVersion
1070
     0
  0
VISUALSTYLE
  5
2D
102
{ACAD_REACTORS
330
2A
102
}
330
2A
100
AcDbVisualStyle
  2
Gouraud
 70
     2
 71
     2
 72
     2
 73
     1
 90
        2
 40
-0.6
 41
30.0
 62
     5
 63
     7
 74
     0
 91
        4
 64
     7
 65
   257
 75
     1
175
     1
 42
1.0
 92
        0
 66
     7
 43
1.0
 76
     1
 77
     6
 78
     2
 67
     7
 79
     5
170
     0
171
     0
290
     0
174
     0
 93
       13
 44
0.0
173
     0
291
     1
 45
0.0
1001
ACAD
1000
AcDbSavedByObjectVersion
1070
     0
  0
VISUALSTYLE
  5
2E
102
{ACAD_REACTORS
330
2A
102
}
330
2A
100
AcDbVisualStyle
  2
GouraudWithEdges
 70
     3
 71
     2
 72
     2
 73
     1
 90
        2
 40
-0.6
 41
30.0
 62
     5
 63
     7
 74
     1
 91
        4
 64
     7
 65
   257
 75
     1
175
     1
 42
1.0
 92
        0
 66
   257
 43
1.0
 76
     1
 77
     6
 78
     2
 67
     7
 79
     5
170
     0
171
     0
290
     0
174
     0
 93
       13
 44
0.0
173
     0
291
     1
 45
0.0
1001
ACAD
1000
AcDbSavedByObjectVersion
1070
     0
  0
VISUALSTYLE
  5
38
102
{ACAD_REACTORS
330
2A
102
}
330
2A
100
AcDbVisualStyle
  2
Linepattern
 70
    14
 71
     2
 72
     2
 73
     0
 90
        0
 40
-0.6
 41
-30.0
 62
     5
 63
     7
 74
     1
 91
        4
 64
     7
 65
   257
 75
     7
175
     7
 42
1.0
 92
        8
 66
     7
 43
1.0
 76
     1
 77
     6
 78
     2
 67
     7
 79
     5
170
     0
171
     0
290
     0
174
     0
 93
        1
 44
0.0
173
     0
291
     1
 45
0.0
1001
ACAD
1000
AcDbSavedByObjectVersion
1070
     0
  0
VISUALSTYLE
  5
33
102
{ACAD_REACTORS
330
2A
102
}
330
2A
100
AcDbVisualStyle
  2
Realistic
 70
     8
 71
     2
 72
     2
 73
     0
 90
        0
 40
-0.6
 41
-30.0
 62
     5
 63
     7
 74
     1
 91
        0
 64
     7
 65
   257
 75
     1
175
     1
 42
1.0
 92
        8
 66
     8
 43
1.0
 76
     1
 77
     6
 78
     2
 67
     7
 79
     5
170
     0
171
     0
290
     0
174
     0
 93
       13
 44
0.0
173
     0
291
     0
 45
0.0
1001
ACAD
1000
AcDbSavedByObjectVersion
1070
     0
  0
VISUALSTYLE
  5
37
102
{ACAD_REACTORS
330
2A
102
}
330
2A
100
AcDbVisualStyle
  2
Thicken
 70
    13
 71
     2
 72
     2
 73
     0
 90
        0
 40
-0.6
 41
-30.0
 62
     5
 63
     7
 74
     1
 91
        4
 64
     7
 65
   257
 75
     1
175
     1
 42
1.0
 92
       12
 66
     7
 43
1.0
 76
     1
 77
     6
 78
     2
 67
     7
 79
     5
170
     0
171
     0
290
     0
174
     0
 93
        1
 44
0.0
173
     0
291
     1
 45
0.0
1001
ACAD
1000
AcDbSavedByObjectVersion
1070
     0
  0
DICTIONARYVAR
  5
250
102
{ACAD_REACTORS
330
24B
102
}
330
24B
100
DictionaryVariables
280
     0
  1
1:1
  0
DICTIONARYVAR
  5
251
102
{ACAD_REACTORS
330
24B
102
}
330
24B
100
DictionaryVariables
280
     0
  1
2
  0
DICTIONARYVAR
  5
252
102
{ACAD_REACTORS
330
24B
102
}
330
24B
100
DictionaryVariables
280
     0
  1
1
  0
DICTIONARYVAR
  5
24F
102
{ACAD_REACTORS
330
24B
102
}
330
24B
100
DictionaryVariables
280
     0
  1
80.000000
  0
DICTIONARYVAR
  5
24E
102
{ACAD_REACTORS
330
24B
102
}
330
24B
100
DictionaryVariables
280
     0
  1
5.000000
  0
ENDSEC
  0
EOF
