  0
SECTION
  2
HEADER
  9
$ACADVER
  1
AC1015
  9
$ACADMAINTVER
 70
     6
  9
$DWGCODEPAGE
  3
ANSI_1252
  9
$INSBASE
 10
0.0
 20
0.0
 30
0.0
  9
$EXTMIN
 10
-22.225
 20
-22.225
 30
0.0
  9
$EXTMAX
 10
22.225
 20
22.225
 30
0.0
  9
$LIMMIN
 10
0.0
 20
0.0
  9
$LIMMAX
 10
420.0
 20
297.0
  9
$ORTHOMODE
 70
     0
  9
$REGENMODE
 70
     1
  9
$FILLMODE
 70
     1
  9
$QTEXTMODE
 70
     0
  9
$MIRRTEXT
 70
     1
  9
$LTSCALE
 40
1.0
  9
$ATTMODE
 70
     1
  9
$TEXTSIZE
 40
3.5
  9
$TRACEWID
 40
1.0
  9
$TEXTSTYLE
  7
Standard
  9
$CLAYER
  8
0
  9
$CELTYPE
  6
ByLayer
  9
$CECOLOR
 62
   256
  9
$CELTSCALE
 40
1.0
  9
$DISPSILH
 70
     0
  9
$DIMSCALE
 40
1.0
  9
$DIMASZ
 40
3.302
  9
$DIMEXO
 40
1.0
  9
$DIMDLI
 40
3.75
  9
$DIMRND
 40
0.0
  9
$DIMDLE
 40
0.0
  9
$DIMEXE
 40
1.0
  9
$DIMTP
 40
0.0
  9
$DIMTM
 40
0.0
  9
$DIMTXT
 40
3.5
  9
$DIMCEN
 40
2.5
  9
$DIMTSZ
 40
0.0
  9
$DIMTOL
 70
     0
  9
$DIMLIM
 70
     0
  9
$DIMTIH
 70
     1
  9
$DIMTOH
 70
     1
  9
$DIMSE1
 70
     0
  9
$DIMSE2
 70
     0
  9
$DIMTAD
 70
     1
  9
$DIMZIN
 70
     0
  9
$DIMBLK
  1

  9
$DIMASO
 70
     1
  9
$DIMSHO
 70
     1
  9
$DIMPOST
  1

  9
$DIMAPOST
  1

  9
$DIMALT
 70
     0
  9
$DIMALTD
 70
     3
  9
$DIMALTF
 40
0.0393700787
  9
$DIMLFAC
 40
1.0
  9
$DIMTOFL
 70
     1
  9
$DIMTVP
 40
0.0
  9
$DIMTIX
 70
     0
  9
$DIMSOXD
 70
     0
  9
$DIMSAH
 70
     0
  9
$DIMBLK1
  1

  9
$DIMBLK2
  1

  9
$DIMSTYLE
  2
ISO-25
  9
$DIMCLRD
 70
     0
  9
$DIMCLRE
 70
     0
  9
$DIMCLRT
 70
     0
  9
$DIMTFAC
 40
1.0
  9
$DIMGAP
 40
1.524
  9
$DIMJUST
 70
     0
  9
$DIMSD1
 70
     0
  9
$DIMSD2
 70
     0
  9
$DIMTOLJ
 70
     0
  9
$DIMTZIN
 70
     0
  9
$DIMALTZ
 70
     0
  9
$DIMALTTZ
 70
     0
  9
$DIMUPT
 70
     0
  9
$DIMDEC
 70
     3
  9
$DIMTDEC
 70
     3
  9
$DIMALTU
 70
     2
  9
$DIMALTTD
 70
     3
  9
$DIMTXSTY
  7
Standard
  9
$DIMAUNIT
 70
     0
  9
$DIMADEC
 70
     2
  9
$DIMALTRND
 40
0.0
  9
$DIMAZIN
 70
     0
  9
$DIMDSEP
 70
    44
  9
$DIMATFIT
 70
     3
  9
$DIMFRAC
 70
     0
  9
$DIMLDRBLK
  1

  9
$DIMLUNIT
 70
     2
  9
$DIMLWD
 70
    -2
  9
$DIMLWE
 70
    -2
  9
$DIMTMOVE
 70
     0
  9
$LUNITS
 70
     2
  9
$LUPREC
 70
     2
  9
$SKETCHINC
 40
1.0
  9
$FILLETRAD
 40
10.0
  9
$AUNITS
 70
     0
  9
$AUPREC
 70
     2
  9
$MENU
  1
.
  9
$ELEVATION
 40
0.0
  9
$PELEVATION
 40
0.0
  9
$THICKNESS
 40
0.0
  9
$LIMCHECK
 70
     0
  9
$CHAMFERA
 40
10.0
  9
$CHAMFERB
 40
10.0
  9
$CHAMFERC
 40
20.0
  9
$CHAMFERD
 40
0.0
  9
$SKPOLY
 70
     0
  9
$TDCREATE
 40
2457184.470671505
  9
$TDUCREATE
 40
2457184.054004838
  9
$TDUPDATE
 40
2457184.470671516
  9
$TDUUPDATE
 40
2457184.054004849
  9
$TDINDWG
 40
0.0000000116
  9
$TDUSRTIMER
 40
0.0000000116
  9
$USRTIMER
 70
     1
  9
$ANGBASE
 50
0.0
  9
$ANGDIR
 70
     0
  9
$PDMODE
 70
     0
  9
$PDSIZE
 40
-1.0
  9
$PLINEWID
 40
0.0
  9
$SPLFRAME
 70
     0
  9
$SPLINETYPE
 70
     6
  9
$SPLINESEGS
 70
     8
  9
$HANDSEED
  5
3BF
  9
$SURFTAB1
 70
     6
  9
$SURFTAB2
 70
     6
  9
$SURFTYPE
 70
     6
  9
$SURFU
 70
     6
  9
$SURFV
 70
     6
  9
$UCSBASE
  2

  9
$UCSNAME
  2

  9
$UCSORG
 10
0.0
 20
0.0
 30
0.0
  9
$UCSXDIR
 10
1.0
 20
0.0
 30
0.0
  9
$UCSYDIR
 10
0.0
 20
1.0
 30
0.0
  9
$UCSORTHOREF
  2

  9
$UCSORTHOVIEW
 70
     0
  9
$UCSORGTOP
 10
0.0
 20
0.0
 30
0.0
  9
$UCSORGBOTTOM
 10
0.0
 20
0.0
 30
0.0
  9
$UCSORGLEFT
 10
0.0
 20
0.0
 30
0.0
  9
$UCSORGRIGHT
 10
0.0
 20
0.0
 30
0.0
  9
$UCSORGFRONT
 10
0.0
 20
0.0
 30
0.0
  9
$UCSORGBACK
 10
0.0
 20
0.0
 30
0.0
  9
$PUCSBASE
  2

  9
$PUCSNAME
  2

  9
$PUCSORG
 10
0.0
 20
0.0
 30
0.0
  9
$PUCSXDIR
 10
1.0
 20
0.0
 30
0.0
  9
$PUCSYDIR
 10
0.0
 20
1.0
 30
0.0
  9
$PUCSORTHOREF
  2

  9
$PUCSORTHOVIEW
 70
     0
  9
$PUCSORGTOP
 10
0.0
 20
0.0
 30
0.0
  9
$PUCSORGBOTTOM
 10
0.0
 20
0.0
 30
0.0
  9
$PUCSORGLEFT
 10
0.0
 20
0.0
 30
0.0
  9
$PUCSORGRIGHT
 10
0.0
 20
0.0
 30
0.0
  9
$PUCSORGFRONT
 10
0.0
 20
0.0
 30
0.0
  9
$PUCSORGBACK
 10
0.0
 20
0.0
 30
0.0
  9
$USERI1
 70
     0
  9
$USERI2
 70
     0
  9
$USERI3
 70
     0
  9
$USERI4
 70
     0
  9
$USERI5
 70
     0
  9
$USERR1
 40
0.0
  9
$USERR2
 40
0.0
  9
$USERR3
 40
0.0
  9
$USERR4
 40
0.0
  9
$USERR5
 40
0.0
  9
$WORLDVIEW
 70
     1
  9
$SHADEDGE
 70
     3
  9
$SHADEDIF
 70
    70
  9
$TILEMODE
 70
     1
  9
$MAXACTVP
 70
    64
  9
$PINSBASE
 10
0.0
 20
0.0
 30
0.0
  9
$PLIMCHECK
 70
     0
  9
$PEXTMIN
 10
1.0000000000E+20
 20
1.0000000000E+20
 30
1.0000000000E+20
  9
$PEXTMAX
 10
-1.0000000000E+20
 20
-1.0000000000E+20
 30
-1.0000000000E+20
  9
$PLIMMIN
 10
0.0
 20
0.0
  9
$PLIMMAX
 10
420.0
 20
297.0
  9
$UNITMODE
 70
     0
  9
$VISRETAIN
 70
     1
  9
$PLINEGEN
 70
     0
  9
$PSLTSCALE
 70
     1
  9
$TREEDEPTH
 70
  3020
  9
$CMLSTYLE
  2
Standard
  9
$CMLJUST
 70
     0
  9
$CMLSCALE
 40
20.0
  9
$PROXYGRAPHICS
 70
     1
  9
$MEASUREMENT
 70
     1
  9
$CELWEIGHT
370
    -1
  9
$ENDCAPS
280
     0
  9
$JOINSTYLE
280
     0
  9
$LWDISPLAY
290
     1
  9
$INSUNITS
 70
     4
  9
$HYPERLINKBASE
  1

  9
$STYLESHEET
  1

  9
$XEDIT
290
     1
  9
$CEPSNTYPE
380
     0
  9
$PSTYLEMODE
290
     1
  9
$FINGERPRINTGUID
  2
{1032EB26-FC8C-4513-BD97-934E069F76C4}
  9
$VERSIONGUID
  2
{FAEB1C32-E019-11D5-929B-00C0DF256EC4}
  9
$EXTNAMES
290
     1
  9
$PSVPSCALE
 40
0.0
  9
$OLESTARTUP
290
     0
  0
ENDSEC
  0
SECTION
  2
CLASSES
  0
CLASS
  1
ACDBDICTIONARYWDFLT
  2
AcDbDictionaryWithDefault
  3
ObjectDBX Classes
 90
        0
280
     0
281
     0
  0
CLASS
  1
VISUALSTYLE
  2
AcDbVisualStyle
  3
ObjectDBX Classes
 90
     4095
280
     0
281
     0
  0
CLASS
  1
SCALE
  2
AcDbScale
  3
ObjectDBX Classes
 90
     1153
280
     0
281
     0
  0
CLASS
  1
DICTIONARYVAR
  2
AcDbDictionaryVar
  3
ObjectDBX Classes
 90
        0
280
     0
281
     0
  0
CLASS
  1
ACDBPLACEHOLDER
  2
AcDbPlaceHolder
  3
ObjectDBX Classes
 90
        0
280
     0
281
     0
  0
CLASS
  1
LAYOUT
  2
AcDbLayout
  3
ObjectDBX Classes
 90
        0
280
     0
281
     0
  0
ENDSEC
  0
SECTION
  2
TABLES
  0
TABLE
  2
VPORT
  5
8
330
0
100
AcDbSymbolTable
 70
     1
  0
VPORT
  5
29
330
8
100
AcDbSymbolTableRecord
100
AcDbViewportTableRecord
  2
*Active
 70
     0
 10
0.0
 20
0.0
 11
1.0
 21
1.0
 12
0.0
 22
0.0
 13
0.0
 23
0.0
 14
10.0
 24
10.0
 15
10.0
 25
10.0
 16
0.0
 26
0.0
 36
1.0
 17
0.0
 27
0.0
 37
0.0
 40
45.339
 41
1.0
 42
50.0
 43
0.0
 44
0.0
 50
0.0
 51
0.0
 71
     0
 72
   100
 73
     1
 74
     3
 75
     0
 76
     0
 77
     0
 78
     0
281
     0
 65
     1
110
0.0
120
0.0
130
0.0
111
1.0
121
0.0
131
0.0
112
0.0
122
1.0
132
0.0
 79
     0
146
0.0
  0
ENDTAB
  0
TABLE
  2
LTYPE
  5
5
330
0
100
AcDbSymbolTable
 70
     6
  0
LTYPE
  5
14
330
5
100
AcDbSymbolTableRecord
100
AcDbLinetypeTableRecord
  2
ByBlock
 70
     0
  3

 72
    65
 73
     0
 40
0.0
  0
LTYPE
  5
15
330
5
100
AcDbSymbolTableRecord
100
AcDbLinetypeTableRecord
  2
ByLayer
 70
     0
  3

 72
    65
 73
     0
 40
0.0
  0
LTYPE
  5
16
330
5
100
AcDbSymbolTableRecord
100
AcDbLinetypeTableRecord
  2
Continuous
 70
     0
  3
Solid line
 72
    65
 73
     0
 40
0.0
  0
LTYPE
  5
3B
330
5
100
AcDbSymbolTableRecord
100
AcDbLinetypeTableRecord
  2
HIDDEN
 70
     0
  3
Hidden __ __ __ __ __ __ __ __ __ __ __ __ __ __
 72
    65
 73
     2
 40
1.905
 49
1.27
 74
     0
 49
-0.635
 74
     0
  0
LTYPE
  5
3C
330
5
100
AcDbSymbolTableRecord
100
AcDbLinetypeTableRecord
  2
PHANTOM
 70
     0
  3
Phantom ______  __  __  ______  __  __  ______
 72
    65
 73
     6
 40
12.7
 49
6.35
 74
     0
 49
-1.27
 74
     0
 49
1.27
 74
     0
 49
-1.27
 74
     0
 49
1.27
 74
     0
 49
-1.27
 74
     0
  0
LTYPE
  5
3D
330
5
100
AcDbSymbolTableRecord
100
AcDbLinetypeTableRecord
  2
CENTER
 70
     0
  3
Center ____ _ ____ _ ____ _ ____ _ ____ _ ____
 72
    65
 73
     4
 40
10.16
 49
6.35
 74
     0
 49
-1.27
 74
     0
 49
1.27
 74
     0
 49
-1.27
 74
     0
  0
LTYPE
  5
3E
330
5
100
AcDbSymbolTableRecord
100
AcDbLinetypeTableRecord
  2
CENTERX2
 70
     0
  3
Center (2x) ________  __  ________  __  _____
 72
    65
 73
     4
 40
20.32
 49
12.7
 74
     0
 49
-2.54
 74
     0
 49
2.54
 74
     0
 49
-2.54
 74
     0
  0
LTYPE
  5
3F
330
5
100
AcDbSymbolTableRecord
100
AcDbLinetypeTableRecord
  2
DOT2
 70
     0
  3
Dot (.5x) ........................................
 72
    65
 73
     2
 40
0.635
 49
0.0
 74
     0
 49
-0.635
 74
     0
  0
ENDTAB
  0
TABLE
  2
LAYER
  5
2
330
0
100
AcDbSymbolTable
 70
     1
  0
LAYER
  5
10
330
2
100
AcDbSymbolTableRecord
100
AcDbLayerTableRecord
  2
0
 70
     0
 62
     7
  6
Continuous
370
    -3
390
F
  0
ENDTAB
  0
TABLE
  2
STYLE
  5
3
330
0
100
AcDbSymbolTable
 70
     1
  0
STYLE
  5
11
330
3
100
AcDbSymbolTableRecord
100
AcDbTextStyleTableRecord
  2
Standard
 70
     0
 40
0.0
 41
1.0
 50
0.0
 71
     0
 42
2.5
  3
txt
  4

  0
ENDTAB
  0
TABLE
  2
VIEW
  5
6
330
0
100
AcDbSymbolTable
 70
     0
  0
ENDTAB
  0
TABLE
  2
UCS
  5
7
330
0
100
AcDbSymbolTable
 70
     0
  0
ENDTAB
  0
TABLE
  2
APPID
  5
9
330
0
100
AcDbSymbolTable
 70
     1
  0
APPID
  5
12
330
9
100
AcDbSymbolTableRecord
100
AcDbRegAppTableRecord
  2
ACAD
 70
     0
  0
ENDTAB
  0
TABLE
  2
DIMSTYLE
  5
A
330
0
100
AcDbSymbolTable
 70
     1
100
AcDbDimStyleTable
  0
DIMSTYLE
105
27
330
A
100
AcDbSymbolTableRecord
100
AcDbDimStyleTableRecord
  2
ISO-25
 70
     0
 41
2.5
 42
0.625
 43
3.75
 44
1.25
 73
     0
 74
     0
 77
     1
 78
     8
140
2.5
141
2.5
143
0.0393700787
147
0.625
171
     3
172
     1
271
     2
272
     2
274
     3
278
    44
283
     0
284
     8
340
11
  0
ENDTAB
  0
TABLE
  2
BLOCK_RECORD
  5
1
330
0
100
AcDbSymbolTable
 70
     1
  0
BLOCK_RECORD
  5
1F
330
1
100
AcDbSymbolTableRecord
100
AcDbBlockTableRecord
  2
*Model_Space
340
22
  0
BLOCK_RECORD
  5
1B
330
1
100
AcDbSymbolTableRecord
100
AcDbBlockTableRecord
  2
*Paper_Space
340
1E
  0
BLOCK_RECORD
  5
23
330
1
100
AcDbSymbolTableRecord
100
AcDbBlockTableRecord
  2
*Paper_Space0
340
26
  0
ENDTAB
  0
ENDSEC
  0
SECTION
  2
BLOCKS
  0
BLOCK
  5
20
330
1F
100
AcDbEntity
  8
0
100
AcDbBlockBegin
  2
*Model_Space
 70
     0
 10
0.0
 20
0.0
 30
0.0
  3
*Model_Space
  1

  0
ENDBLK
  5
21
330
1F
100
AcDbEntity
  8
0
100
AcDbBlockEnd
  0
BLOCK
  5
1C
330
1B
100
AcDbEntity
 67
     1
  8
0
100
AcDbBlockBegin
  2
*Paper_Space
 70
     0
 10
0.0
 20
0.0
 30
0.0
  3
*Paper_Space
  1

  0
ENDBLK
  5
1D
330
1B
100
AcDbEntity
 67
     1
  8
0
100
AcDbBlockEnd
  0
BLOCK
  5
24
330
23
100
AcDbEntity
  8
0
100
AcDbBlockBegin
  2
*Paper_Space0
 70
     0
 10
0.0
 20
0.0
 30
0.0
  3
*Paper_Space0
  1

  0
ENDBLK
  5
25
330
23
100
AcDbEntity
  8
0
100
AcDbBlockEnd
  0
ENDSEC
  0
SECTION
  2
ENTITIES
  0
CIRCLE
  5
43
330
1F
100
AcDbEntity
  8
0
  6
Continuous
 62
     7
370
    15
100
AcDbCircle
 10
0.0
 20
0.0
 30
0.0
 40
4.517433002663292
  0
CIRCLE
  5
45
330
1F
100
AcDbEntity
  8
0
  6
Continuous
 62
     7
370
    15
100
AcDbCircle
 10
0.0
 20
0.0
 30
0.0
 40
4.496129124242289
  0
CIRCLE
  5
46
330
1F
100
AcDbEntity
  8
0
  6
Continuous
 62
     7
370
    15
100
AcDbCircle
 10
0.0
 20
0.0
 30
0.0
 40
2.276748511479679
  0
CIRCLE
  5
47
330
1F
100
AcDbEntity
  8
0
  6
Continuous
 62
     7
370
    15
100
AcDbCircle
 10
0.0
 20
0.0
 30
0.0
 40
2.247899999999999
  0
SPLINE
  5
4B
330
1F
100
AcDbEntity
  8
0
  6
Continuous
 62
     7
370
    15
100
AcDbSpline
210
0.0
220
0.0
230
1.0
 70
     8
 71
     3
 72
    18
 73
    14
 74
     0
 42
0.00000001
 43
0.00000001
 40
0.0
 40
0.0
 40
0.0
 40
0.0
 40
0.125
 40
0.125
 40
0.25
 40
0.25
 40
0.4999999999999999
 40
0.4999999999999999
 40
0.7499999999999999
 40
0.7499999999999999
 40
0.8749999999999999
 40
0.8749999999999999
 40
0.9999999999999999
 40
0.9999999999999999
 40
0.9999999999999999
 40
0.9999999999999999
 10
16.3109594800007
 20
-12.12786536270746
 30
0.0
 10
16.32351410760279
 20
-12.111965641796
 30
0.0
 10
16.33621742375794
 20
-12.09608401040988
 30
0.0
 10
16.36451675526399
 20
-12.06702257018905
 30
0.0
 10
16.38001168542455
 20
-12.05381302540057
 30
0.0
 10
16.4292015414947
 20
-12.01800680719819
 30
0.0
 10
16.46682958967408
 20
-12.00042270822773
 30
0.0
 10
16.54658298987656
 20
-11.98536220321507
 30
0.0
 10
16.58821251920886
 20
-11.98649827029523
 30
0.0
 10
16.64706477019226
 20
-12.00249738991308
 30
0.0
 10
16.66609189130078
 20
-12.01005586237208
 30
0.0
 10
16.70187170648455
 20
-12.02909895741815
 30
0.0
 10
16.7186722691648
 20
-12.04053549904337
 30
0.0
 10
16.73547246701369
 20
-12.0519725055646
 30
0.0
  0
SPLINE
  5
4C
330
1F
100
AcDbEntity
  8
0
  6
Continuous
 62
     7
370
    15
100
AcDbSpline
210
0.0
220
0.0
230
1.0
 70
     8
 71
     3
 72
    16
 73
    12
 74
     0
 42
0.00000001
 43
0.00000001
 40
0.0
 40
0.0
 40
0.0
 40
0.0
 40
0.125
 40
0.125
 40
0.25
 40
0.25
 40
0.5
 40
0.5
 40
0.75
 40
0.75
 40
1.0
 40
1.0
 40
1.0
 40
1.0
 10
16.7354724670137
 20
-12.0519725055646
 30
0.0
 10
16.75126446125843
 20
-12.06451420542687
 30
0.0
 10
16.76699023698807
 20
-12.07734909330317
 30
0.0
 10
16.79478691318928
 20
-12.10666265420258
 30
0.0
 10
16.80728913710748
 20
-12.12270853751462
 30
0.0
 10
16.83882814716582
 20
-12.17442595355553
 30
0.0
 10
16.85148176297364
 20
-12.21398574657647
 30
0.0
 10
16.85802496007986
 20
-12.29454364545315
 30
0.0
 10
16.85184064035287
 20
-12.33560987713281
 30
0.0
 10
16.82381242065415
 20
-12.41148609593646
 30
0.0
 10
16.80124287797703
 20
-12.44574737401708
 30
0.0
 10
16.77849194753317
 20
-12.47892055751265
 30
0.0
  0
SPLINE
  5
4E
330
1F
100
AcDbEntity
  8
0
  6
Continuous
 62
     7
370
    15
100
AcDbSpline
210
0.0
220
0.0
230
1.0
 70
     8
 71
     3
 72
    24
 73
    20
 74
     0
 42
0.00000001
 43
0.00000001
 40
-0.0000439995944317
 40
-0.0000439995944317
 40
-0.0000439995944317
 40
-0.0000439995944317
 40
0.0
 40
0.0
 40
0.0
 40
0.125
 40
0.125
 40
0.25
 40
0.25
 40
0.4999999999999999
 40
0.4999999999999999
 40
0.7499999999999999
 40
0.7499999999999999
 40
0.8749999999999999
 40
0.8749999999999999
 40
0.9999999999999999
 40
0.9999999999999999
 40
0.9999999999999999
 40
1.000131601046671
 40
1.000131601046671
 40
1.000131601046671
 40
1.000131601046671
 10
16.30957642637885
 20
-12.12680049299856
 30
0.0
 10
16.30958084474608
 20
-12.12679489738802
 30
0.0
 10
16.30958526311331
 20
-12.12678930177748
 30
0.0
 10
16.30958968148054
 20
-12.12678370616695
 30
0.0
 10
16.32214197680559
 20
-12.1108869387889
 30
0.0
 10
16.33489499218055
 20
-12.0949402658788
 30
0.0
 10
16.36333827034187
 20
-12.06573100527519
 30
0.0
 10
16.37890125499593
 20
-12.05246251430017
 30
0.0
 10
16.42834085743587
 20
-12.01647450438813
 30
0.0
 10
16.46625642265727
 20
-11.99875472545814
 30
0.0
 10
16.54650843203951
 20
-11.9836000594646
 30
0.0
 10
16.58841630178602
 20
-11.98474495049877
 30
0.0
 10
16.64764967950211
 20
-12.00084767991215
 30
0.0
 10
16.66680031450382
 20
-12.00845572465947
 30
0.0
 10
16.70280337068451
 20
-12.02761762977472
 30
0.0
 10
16.7196547426672
 20
-12.03909290585774
 30
0.0
 10
16.73645463586646
 20
-12.05052970509255
 30
0.0
 10
16.73647232293469
 20
-12.05054174585054
 30
0.0
 10
16.73649001000292
 20
-12.05055378660854
 30
0.0
 10
16.73650769707116
 20
-12.05056582736654
 30
0.0
  0
SPLINE
  5
55
330
1F
100
AcDbEntity
  8
0
  6
Continuous
 62
     7
370
    15
100
AcDbSpline
210
0.0
220
0.0
230
1.0
 70
     8
 71
     3
 72
    16
 73
    12
 74
     0
 42
0.00000001
 43
0.00000001
 40
0.0
 40
0.0
 40
0.0
 40
0.0
 40
0.125
 40
0.125
 40
0.25
 40
0.25
 40
0.5
 40
0.5
 40
0.75
 40
0.75
 40
1.0
 40
1.0
 40
1.0
 40
1.0
 10
11.95740305931372
 20
-16.38702357436195
 30
0.0
 10
11.97417964369637
 20
-16.37595128029194
 30
0.0
 10
11.99095656364139
 20
-16.36487941835545
 30
0.0
 10
12.02639835300479
 20
-16.34625639525101
 30
0.0
 10
12.04517817139333
 20
-16.33884288317348
 30
0.0
 10
12.10324674762529
 20
-16.32244436396184
 30
0.0
 10
12.14433021390457
 20
-16.32058995609764
 30
0.0
 10
12.22318802225359
 20
-16.33587873364654
 30
0.0
 10
12.26040979567683
 20
-16.35267561839758
 30
0.0
 10
12.32619967143571
 20
-16.39867923075349
 30
0.0
 10
12.35293123104293
 20
-16.42944630264761
 30
0.0
 10
12.37704591645658
 20
-16.46129305488143
 30
0.0
  0
SPLINE
  5
56
330
1F
100
AcDbEntity
  8
0
  6
Continuous
 62
     7
370
    15
100
AcDbSpline
210
0.0
220
0.0
230
1.0
 70
     8
 71
     3
 72
    14
 73
    10
 74
     0
 42
0.00000001
 43
0.00000001
 40
0.0
 40
0.0
 40
0.0
 40
0.0
 40
0.25
 40
0.25
 40
0.5
 40
0.5
 40
0.75
 40
0.75
 40
1.0
 40
1.0
 40
1.0
 40
1.0
 10
12.37704591645658
 20
-16.46129305488143
 30
0.0
 10
12.39909201321554
 20
-16.49452841792593
 30
0.0
 10
12.42005901554957
 20
-16.52916715545179
 30
0.0
 10
12.44361219819791
 20
-16.60571883456548
 30
0.0
 10
12.44693475580536
 20
-16.64647497418041
 30
0.0
 10
12.43622055894289
 20
-16.7257491752548
 30
0.0
 10
12.42102704886454
 20
-16.76390041851848
 30
0.0
 10
12.3752735605013
 20
-16.82938418108932
 30
0.0
 10
12.34532225853591
 20
-16.85679059679847
 30
0.0
 10
12.31332838398904
 20
-16.88053006786844
 30
0.0
  0
SPLINE
  5
58
330
1F
100
AcDbEntity
  8
0
  6
Continuous
 62
     7
370
    15
100
AcDbSpline
210
0.0
220
0.0
230
1.0
 70
     8
 71
     3
 72
    20
 73
    16
 74
     0
 42
0.00000001
 43
0.00000001
 40
-0.0001139335537087
 40
-0.0001139335537087
 40
-0.0001139335537087
 40
-0.0001139335537087
 40
0.0
 40
0.0
 40
0.0
 40
0.25
 40
0.25
 40
0.5
 40
0.5
 40
0.75
 40
0.75
 40
1.0
 40
1.0
 40
1.0
 40
1.000024602111901
 40
1.000024602111901
 40
1.000024602111901
 40
1.000024602111901
 10
12.3784702735695
 20
-16.46028285497058
 30
0.0
 10
12.37848031752315
 20
-16.46029799662796
 30
0.0
 10
12.37849036147679
 20
-16.46031313828533
 30
0.0
 10
12.37850040543044
 20
-16.4603282799427
 30
0.0
 10
12.40053946530408
 20
-16.49355303436832
 30
0.0
 10
12.42165892269337
 20
-16.52843193023396
 30
0.0
 10
12.44534868794406
 20
-16.60542752618778
 30
0.0
 10
12.44869479621763
 20
-16.6464838756687
 30
0.0
 10
12.43791981503052
 20
-16.72620780254189
 30
0.0
 10
12.42263438641827
 20
-16.76464730692446
 30
0.0
 10
12.37652767229272
 20
-16.83063664834833
 30
0.0
 10
12.34648558589546
 20
-16.85810077637204
 30
0.0
 10
12.3143684658313
 20
-16.88193169500106
 30
0.0
 10
12.31436530523538
 20
-16.88193404016477
 30
0.0
 10
12.31436214463945
 20
-16.88193638532847
 30
0.0
 10
12.31435898404352
 20
-16.88193873049218
 30
0.0
  0
SPLINE
  5
5C
330
1F
100
AcDbEntity
  8
0
  6
Continuous
 62
     7
370
    15
100
AcDbSpline
210
0.0
220
0.0
230
1.0
 70
     8
 71
     3
 72
    20
 73
    16
 74
     0
 42
0.00000001
 43
0.00000001
 40
-0.0001028271607538
 40
-0.0001028271607538
 40
-0.0001028271607538
 40
-0.0001028271607538
 40
0.0
 40
0.0
 40
0.0
 40
0.125
 40
0.125
 40
0.25
 40
0.25
 40
0.4999999999999999
 40
0.4999999999999999
 40
0.9999999999999999
 40
0.9999999999999999
 40
0.9999999999999999
 40
1.000014105512883
 40
1.000014105512883
 40
1.000014105512883
 40
1.000014105512883
 10
18.99246530109185
 20
-7.574048512782706
 30
0.0
 10
18.99248322820784
 20
-7.574043032364354
 30
0.0
 10
18.99250115532383
 20
-7.574037551946001
 30
0.0
 10
18.99251908243982
 20
-7.574032071527648
 30
0.0
 10
19.01431186055508
 20
-7.567369898916231
 30
0.0
 10
19.03655597799272
 20
-7.561155093070822
 30
0.0
 10
19.08231836463163
 20
-7.557154737204383
 30
0.0
 10
19.10536872829955
 20
-7.55813621743496
 30
0.0
 10
19.17344924511766
 20
-7.566836715081869
 30
0.0
 10
19.21751974653143
 20
-7.579697518316023
 30
0.0
 10
19.3475551341461
 20
-7.622144258279496
 30
0.0
 10
19.43193984323435
 20
-7.656875106807885
 30
0.0
 10
19.51601997448882
 20
-7.691784054490625
 30
0.0
 10
19.51602234647557
 20
-7.691785039307847
 30
0.0
 10
19.51602471846232
 20
-7.69178602412507
 30
0.0
 10
19.51602709044907
 20
-7.691787008942293
 30
0.0
  0
SPLINE
  5
5D
330
1F
100
AcDbEntity
  8
0
  6
Continuous
 62
     7
370
    15
100
AcDbSpline
210
0.0
220
0.0
230
1.0
 70
     8
 71
     3
 72
    14
 73
    10
 74
     0
 42
0.00000001
 43
0.00000001
 40
0.0
 40
0.0
 40
0.0
 40
0.0
 40
0.125
 40
0.125
 40
0.25
 40
0.25
 40
0.4999999999999999
 40
0.4999999999999999
 40
0.9999999999999999
 40
0.9999999999999999
 40
0.9999999999999999
 40
0.9999999999999999
 10
18.99302928398041
 20
-7.575701210001673
 30
0.0
 10
19.01485048775912
 20
-7.569030347845827
 30
0.0
 10
19.03686634148075
 20
-7.562879990043775
 30
0.0
 10
19.0823119682668
 20
-7.558907327746573
 30
0.0
 10
19.10524906683113
 20
-7.559880493218907
 30
0.0
 10
19.17302479274844
 20
-7.568542040876842
 30
0.0
 10
19.21703440948578
 20
-7.581375099962861
 30
0.0
 10
19.34690097897243
 20
-7.623766733941904
 30
0.0
 10
19.43130159740289
 20
-7.658499944988822
 30
0.0
 10
19.51535071255184
 20
-7.69339601519648
 30
0.0
  0
SPLINE
  5
5F
330
1F
100
AcDbEntity
  8
0
  6
Continuous
 62
     7
370
    15
100
AcDbSpline
210
0.0
220
0.0
230
1.0
 70
     8
 71
     3
 72
    20
 73
    16
 74
     0
 42
0.00000001
 43
0.00000001
 40
-0.0000543292851806
 40
-0.0000543292851806
 40
-0.0000543292851806
 40
-0.0000543292851806
 40
0.0
 40
0.0
 40
0.0
 40
0.25
 40
0.25
 40
0.5
 40
0.5
 40
0.75
 40
0.75
 40
1.0
 40
1.0
 40
1.0
 40
1.000159262693634
 40
1.000159262693634
 40
1.000159262693634
 40
1.000159262693634
 10
18.75360119557831
 20
-7.820547169136754
 30
0.0
 10
18.7536037851624
 20
-7.820541326802367
 30
0.0
 10
18.75360637474649
 20
-7.82053548446798
 30
0.0
 10
18.75360896433058
 20
-7.820529642133592
 30
0.0
 10
18.76552511637102
 20
-7.79364573243342
 30
0.0
 10
18.77776028202545
 20
-7.766657500132802
 30
0.0
 10
18.80780719339291
 20
-7.715746040745872
 30
0.0
 10
18.82521882069353
 20
-7.691666058054671
 30
0.0
 10
18.86499356502772
 20
-7.647833455688277
 30
0.0
 10
18.88789970997393
 20
-7.628693788862271
 30
0.0
 10
18.93748004650478
 20
-7.596341789904518
 30
0.0
 10
18.96488974698207
 20
-7.584460598474748
 30
0.0
 10
18.99241270053525
 20
-7.574068373906827
 30
0.0
 10
18.99243023405413
 20
-7.574061753532117
 30
0.0
 10
18.992447767573
 20
-7.574055133157406
 30
0.0
 10
18.99246530109188
 20
-7.574048512782697
 30
0.0
  0
SPLINE
  5
60
330
1F
100
AcDbEntity
  8
0
  6
Continuous
 62
     7
370
    15
100
AcDbSpline
210
0.0
220
0.0
230
1.0
 70
     8
 71
     3
 72
    14
 73
    10
 74
     0
 42
0.00000001
 43
0.00000001
 40
0.0
 40
0.0
 40
0.0
 40
0.0
 40
0.25
 40
0.25
 40
0.5
 40
0.5
 40
0.75
 40
0.75
 40
1.0
 40
1.0
 40
1.0
 40
1.0
 10
18.75520460865574
 20
-7.821236924287389
 30
0.0
 10
18.7671230472535
 20
-7.794347856013589
 30
0.0
 10
18.7793196018413
 20
-7.7674493831852
 30
0.0
 10
18.80925411355126
 20
-7.716728372068197
 30
0.0
 10
18.82661139032577
 20
-7.692728714593552
 30
0.0
 10
18.86618609396917
 20
-7.649116557191973
 30
0.0
 10
18.88897874355012
 20
-7.630073781794694
 30
0.0
 10
18.93830860310231
 20
-7.597885222216405
 30
0.0
 10
18.96550978606089
 20
-7.586092130052403
 30
0.0
 10
18.99302928398042
 20
-7.575701210001674
 30
0.0
  0
SPLINE
  5
61
330
1F
100
AcDbEntity
  8
0
  6
Continuous
 62
     7
370
    15
100
AcDbSpline
210
0.0
220
0.0
230
1.0
 70
     8
 71
     3
 72
    20
 73
    16
 74
     0
 42
0.00000001
 43
0.00000001
 40
-0.0000137081558232
 40
-0.0000137081558232
 40
-0.0000137081558232
 40
-0.0000137081558232
 40
0.0
 40
0.0
 40
0.0
 40
0.5
 40
0.5
 40
0.75
 40
0.75
 40
0.875
 40
0.875
 40
1.0
 40
1.0
 40
1.0
 40
1.000173186265512
 40
1.000173186265512
 40
1.000173186265512
 40
1.000173186265512
 10
19.51602709044907
 20
-7.691787008942294
 30
0.0
 10
19.51602945280023
 20
-7.691788014294086
 30
0.0
 10
19.51603181515138
 20
-7.691789019645878
 30
0.0
 10
19.51603417750254
 20
-7.69179002499767
 30
0.0
 10
19.6022000771124
 20
-7.728459866135535
 30
0.0
 10
19.6883091275615
 20
-7.765195223604508
 30
0.0
 10
19.81338054691139
 20
-7.829657481053475
 30
0.0
 10
19.85436598559397
 20
-7.852847273618943
 30
0.0
 10
19.91039292567324
 20
-7.89562360409631
 30
0.0
 10
19.92816190258162
 20
-7.911238825854475
 30
0.0
 10
19.95956137871197
 20
-7.946448670068651
 30
0.0
 10
19.9720883768779
 20
-7.966574077609215
 30
0.0
 10
19.9839808485164
 20
-7.986746586557991
 30
0.0
 10
19.9839973254184
 20
-7.986774535369919
 30
0.0
 10
19.98401380232041
 20
-7.986802484181847
 30
0.0
 10
19.98403027922242
 20
-7.986830432993773
 30
0.0
  0
SPLINE
  5
63
330
1F
100
AcDbEntity
  8
0
  6
Continuous
 62
     7
370
    15
100
AcDbSpline
210
0.0
220
0.0
230
1.0
 70
     8
 71
     3
 72
    14
 73
    10
 74
     0
 42
0.00000001
 43
0.00000001
 40
0.0
 40
0.0
 40
0.0
 40
0.0
 40
0.5
 40
0.5
 40
0.75
 40
0.75
 40
0.875
 40
0.875
 40
1.0
 40
1.0
 40
1.0
 40
1.0
 10
19.51535071255184
 20
-7.69339601519648
 30
0.0
 10
19.60143496519549
 20
-7.730031109627125
 30
0.0
 10
19.68768714354002
 20
-7.766838210889453
 30
0.0
 10
19.8124921305495
 20
-7.831163144364243
 30
0.0
 10
19.8534381762598
 20
-7.85433482727467
 30
0.0
 10
19.90926808511069
 20
-7.896960723355396
 30
0.0
 10
19.92695671873063
 20
-7.912509772388368
 30
0.0
 10
19.95816130242874
 20
-7.947501069196302
 30
0.0
 10
19.97057132145566
 20
-7.967437547836648
 30
0.0
 10
19.98247733592847
 20
-7.987633028183493
 30
0.0
  0
SPLINE
  5
67
330
1F
100
AcDbEntity
  8
0
  6
Continuous
 62
     7
370
    15
100
AcDbSpline
210
0.0
220
0.0
230
1.0
 70
     8
 71
     3
 72
    18
 73
    14
 74
     0
 42
0.00000001
 43
0.00000001
 40
-0.0002753184802786
 40
-0.0002753184802786
 40
-0.0002753184802786
 40
-0.0002753184802786
 40
0.0
 40
0.0
 40
0.0
 40
0.25
 40
0.25
 40
0.5
 40
0.5
 40
1.0
 40
1.0
 40
1.0
 40
1.000044164681893
 40
1.000044164681893
 40
1.000044164681893
 40
1.000044164681893
 10
19.98403027922242
 20
-7.98683043299377
 30
0.0
 10
19.98404354773549
 20
-7.986860038495165
 30
0.0
 10
19.98405681624856
 20
-7.986889643996562
 30
0.0
 10
19.98407008476164
 20
-7.986919249497958
 30
0.0
 10
19.99611841608003
 20
-8.013802208249494
 30
0.0
 10
20.00669158577276
 20
-8.041648043546038
 30
0.0
 10
20.01899247145727
 20
-8.099535452253466
 30
0.0
 10
20.02134129013051
 20
-8.129277224674906
 30
0.0
 10
20.01717912039265
 20
-8.217940454212696
 30
0.0
 10
19.99922744873347
 20
-8.275468387104313
 30
0.0
 10
19.97760632279313
 20
-8.329997114609425
 30
0.0
 10
19.97760441301283
 20
-8.330001931097234
 30
0.0
 10
19.97760250323253
 20
-8.330006747585042
 30
0.0
 10
19.97760059345224
 20
-8.330011564072851
 30
0.0
  0
SPLINE
  5
69
330
1F
100
AcDbEntity
  8
0
  6
Continuous
 62
     7
370
    15
100
AcDbSpline
210
0.0
220
0.0
230
1.0
 70
     8
 71
     3
 72
    12
 73
     8
 74
     0
 42
0.00000001
 43
0.00000001
 40
0.0
 40
0.0
 40
0.0
 40
0.0
 40
0.25
 40
0.25
 40
0.5
 40
0.5
 40
1.0
 40
1.0
 40
1.0
 40
1.0
 10
19.98247733592847
 20
-7.987633028183493
 30
0.0
 10
19.99451970771901
 20
-8.014502690384546
 30
0.0
 10
20.00501197934005
 20
-8.04214094017759
 30
0.0
 10
20.01725757263185
 20
-8.099768137644945
 30
0.0
 10
20.01959129526076
 20
-8.129334725025398
 30
0.0
 10
20.01544874940201
 20
-8.217579920723683
 30
0.0
 10
19.99757896205723
 20
-8.274890634990147
 30
0.0
 10
19.97598382943496
 20
-8.329353807404273
 30
0.0
  0
SPLINE
  5
6D
330
1F
100
AcDbEntity
  8
0
  6
Continuous
 62
     7
370
    15
100
AcDbSpline
210
0.0
220
0.0
230
1.0
 70
     8
 71
     3
 72
    22
 73
    18
 74
     0
 42
0.00000001
 43
0.00000001
 40
-0.0001326839305785
 40
-0.0001326839305785
 40
-0.0001326839305785
 40
-0.0001326839305785
 40
0.0
 40
0.0
 40
0.0
 40
0.125
 40
0.125
 40
0.25
 40
0.25
 40
0.5
 40
0.5
 40
0.75
 40
0.75
 40
1.0
 40
1.0
 40
1.0
 40
1.000077382182124
 40
1.000077382182124
 40
1.000077382182124
 40
1.000077382182124
 10
16.73650769707117
 20
-12.05056582736655
 30
0.0
 10
16.73652445729398
 20
-12.05057913801473
 30
0.0
 10
16.73654121751679
 20
-12.05059244866292
 30
0.0
 10
16.7365579777396
 20
-12.05060575931111
 30
0.0
 10
16.75234759025873
 20
-12.06314556737841
 30
0.0
 10
16.76816609175246
 20
-12.07605253882841
 30
0.0
 10
16.79614404435381
 20
-12.10555727243466
 30
0.0
 10
16.80869624057429
 20
-12.12166363155916
 30
0.0
 10
16.84048435621526
 20
-12.17378953351449
 30
0.0
 10
16.85319755799214
 20
-12.21355084090259
 30
0.0
 10
16.85978845499443
 20
-12.2946959613331
 30
0.0
 10
16.85356129633647
 20
-12.33598884745631
 30
0.0
 10
16.82536624530823
 20
-12.41231670900549
 30
0.0
 10
16.80267715121417
 20
-12.44674199512537
 30
0.0
 10
16.77993134693022
 20
-12.47990770402319
 30
0.0
 10
16.77992430645034
 20
-12.47991796976289
 30
0.0
 10
16.77991726597046
 20
-12.4799282355026
 30
0.0
 10
16.77991022549058
 20
-12.4799385012423
 30
0.0
  0
SPLINE
  5
72
330
1F
100
AcDbEntity
  8
0
  6
Continuous
 62
     7
370
    15
100
AcDbSpline
210
0.0
220
0.0
230
1.0
 70
     8
 71
     3
 72
    22
 73
    18
 74
     0
 42
0.00000001
 43
0.00000001
 40
-0.000075218226954
 40
-0.000075218226954
 40
-0.000075218226954
 40
-0.000075218226954
 40
0.0
 40
0.0
 40
0.0
 40
0.125
 40
0.125
 40
0.25
 40
0.25
 40
0.5
 40
0.5
 40
0.75
 40
0.75
 40
1.0
 40
1.0
 40
1.0
 40
1.000113792680527
 40
1.000113792680527
 40
1.000113792680527
 40
1.000113792680527
 10
11.95641139018895
 20
-16.38558682956091
 30
0.0
 10
11.95642148530456
 20
-16.38558016693596
 30
0.0
 10
11.95643158042017
 20
-16.38557350431101
 30
0.0
 10
11.95644167553578
 20
-16.38556684168606
 30
0.0
 10
11.97321805411136
 20
-16.37449468335225
 30
0.0
 10
11.99004191468233
 20
-16.36338836621793
 30
0.0
 10
12.02568925666107
 20
-16.34465733952283
 30
0.0
 10
12.0445917551972
 20
-16.33719485192227
 30
0.0
 10
12.1029965611224
 20
-16.32070138122319
 30
0.0
 10
12.14443625705647
 20
-16.31883264032674
 30
0.0
 10
12.22374637493973
 20
-16.33420911294292
 30
0.0
 10
12.26127033482142
 20
-16.35114759365946
 30
0.0
 10
12.32733945653273
 20
-16.39734648315562
 30
0.0
 10
12.35432856372885
 20
-16.42840041254731
 30
0.0
 10
12.37843735272483
 20
-16.46023937847528
 30
0.0
 10
12.37844832633973
 20
-16.46025387064039
 30
0.0
 10
12.37845929995463
 20
-16.4602683628055
 30
0.0
 10
12.37847027356952
 20
-16.46028285497061
 30
0.0
  0
SPLINE
  5
90
330
1F
100
AcDbEntity
  8
0
  6
Continuous
 62
     7
370
    15
100
AcDbSpline
210
0.0
220
0.0
230
1.0
 70
     8
 71
     3
 72
    18
 73
    14
 74
     0
 42
0.00000001
 43
0.00000001
 40
0.0
 40
0.0
 40
0.0
 40
0.0
 40
0.125
 40
0.125
 40
0.25
 40
0.25
 40
0.5
 40
0.5
 40
0.75
 40
0.75
 40
0.875
 40
0.875
 40
1.0
 40
1.0
 40
1.0
 40
1.0
 10
17.03579714233836
 20
-12.67737834972044
 30
0.0
 10
17.06077176380362
 20
-12.64268341322834
 30
0.0
 10
17.08523256229078
 20
-12.60750547783232
 30
0.0
 10
17.12610353458123
 20
-12.5323486471685
 30
0.0
 10
17.14343987565795
 20
-12.49308862713367
 30
0.0
 10
17.18450202929279
 20
-12.37154086427693
 30
0.0
 10
17.19790498316118
 20
-12.28523447635622
 30
0.0
 10
17.1848228532522
 20
-12.11464236761562
 30
0.0
 10
17.15974307317991
 20
-12.03077358690851
 30
0.0
 10
17.09649355557112
 20
-11.9191546387549
 30
0.0
 10
17.07176692658678
 20
-11.88396715286221
 30
0.0
 10
17.01514743185668
 20
-11.81985952122399
 30
0.0
 10
16.98228821279973
 20
-11.79211769944959
 30
0.0
 10
16.94894649298772
 20
-11.76544653153862
 30
0.0
  0
SPLINE
  5
91
330
1F
100
AcDbEntity
  8
0
  6
Continuous
 62
     7
370
    15
100
AcDbSpline
210
0.0
220
0.0
230
1.0
 70
     8
 71
     3
 72
    18
 73
    14
 74
     0
 42
0.00000001
 43
0.00000001
 40
0.0
 40
0.0
 40
0.0
 40
0.0
 40
0.125
 40
0.125
 40
0.25
 40
0.25
 40
0.5
 40
0.5
 40
0.75
 40
0.75
 40
0.875
 40
0.875
 40
1.0
 40
1.0
 40
1.0
 40
1.0
 10
16.94894649298772
 20
-11.76544653153863
 30
0.0
 10
16.91465302451197
 20
-11.74104887223361
 30
0.0
 10
16.87934971301982
 20
-11.71777343396506
 30
0.0
 10
16.80340192086023
 20
-11.68131499302282
 30
0.0
 10
16.76367670322748
 20
-11.66673379559457
 30
0.0
 10
16.64132605416797
 20
-11.63521075124784
 30
0.0
 10
16.55515804441413
 20
-11.63241191029454
 30
0.0
 10
16.38961561555791
 20
-11.66372167109611
 30
0.0
 10
16.31088188482913
 20
-11.69825212161213
 30
0.0
 10
16.20594813995453
 20
-11.76866292147154
 30
0.0
 10
16.17345640480597
 20
-11.79572977504973
 30
0.0
 10
16.113300036052
 20
-11.85472674685628
 30
0.0
 10
16.08660907905853
 20
-11.88740243733567
 30
0.0
 10
16.06055363584486
 20
-11.92047899907109
 30
0.0
  0
SPLINE
  5
97
330
1F
100
AcDbEntity
  8
0
  6
Continuous
 62
     7
370
    15
100
AcDbSpline
210
0.0
220
0.0
230
1.0
 70
     8
 71
     3
 72
    18
 73
    14
 74
     0
 42
0.00000001
 43
0.00000001
 40
0.0
 40
0.0
 40
0.0
 40
0.0
 40
0.125
 40
0.125
 40
0.25
 40
0.25
 40
0.5
 40
0.5
 40
0.75
 40
0.75
 40
0.875
 40
0.875
 40
1.0
 40
1.0
 40
1.0
 40
1.0
 10
12.51178617619684
 20
-17.13215344449182
 30
0.0
 10
12.54590799121412
 20
-17.10646760772443
 30
0.0
 10
12.57949667452398
 20
-17.08004530508604
 30
0.0
 10
12.64055761346945
 20
-17.02030422020266
 30
0.0
 10
12.6690500660919
 20
-16.98827801715178
 30
0.0
 10
12.74248773300587
 20
-16.88329429245612
 30
0.0
 10
12.77946098321033
 20
-16.80428196766883
 30
0.0
 10
12.81387460783295
 20
-16.63695352717365
 30
0.0
 10
12.8134829766937
 20
-16.54963476256066
 30
0.0
 10
12.78445365519942
 20
-16.42484422142885
 30
0.0
 10
12.77068076840661
 20
-16.38423059748131
 30
0.0
 10
12.73498564935156
 20
-16.3066202709912
 30
0.0
 10
12.71212381015863
 20
-16.27040032804895
 30
0.0
 10
12.6879225398332
 20
-16.23523786007623
 30
0.0
  0
SPLINE
  5
98
330
1F
100
AcDbEntity
  8
0
  6
Continuous
 62
     7
370
    15
100
AcDbSpline
210
0.0
220
0.0
230
1.0
 70
     8
 71
     3
 72
    20
 73
    16
 74
     0
 42
0.00000001
 43
0.00000001
 40
0.0
 40
0.0
 40
0.0
 40
0.0
 40
0.0625
 40
0.0625
 40
0.125
 40
0.125
 40
0.25
 40
0.25
 40
0.5
 40
0.5
 40
0.75
 40
0.75
 40
0.875
 40
0.875
 40
1.0
 40
1.0
 40
1.0
 40
1.0
 10
12.6879225398332
 20
-16.23523786007623
 30
0.0
 10
12.67515906417712
 20
-16.21821384238138
 30
0.0
 10
12.6623944220722
 20
-16.20119068515037
 30
0.0
 10
12.63459914047687
 20
-16.16905175063526
 30
0.0
 10
12.61960454110067
 20
-16.15390855521575
 30
0.0
 10
12.5730058663594
 20
-16.11029891795873
 30
0.0
 10
12.53927480402369
 20
-16.08408878021853
 30
0.0
 10
12.43052733768962
 20
-16.01738581291424
 30
0.0
 10
12.34855587287019
 20
-15.98824098762733
 30
0.0
 10
12.17961905904381
 20
-15.96835606399986
 30
0.0
 10
12.09328414184129
 20
-15.97717564043555
 30
0.0
 10
11.97089980687766
 20
-16.01330547786239
 30
0.0
 10
11.93146949054419
 20
-16.02970607301596
 30
0.0
 10
11.85576573830521
 20
-16.06854242367106
 30
0.0
 10
11.82028270794234
 20
-16.0921164949237
 30
0.0
 10
11.7853251372358
 20
-16.1163255224139
 30
0.0
  0
SPLINE
  5
9A
330
1F
100
AcDbEntity
  8
0
  6
Continuous
 62
     7
370
    15
100
AcDbSpline
210
0.0
220
0.0
230
1.0
 70
     8
 71
     3
 72
     8
 73
     4
 74
     0
 42
0.00000001
 43
0.00000001
 40
40.0
 40
40.0
 40
40.0
 40
40.0
 40
41.0
 40
41.0
 40
41.0
 40
41.0
 10
-6.906065667915088
 20
-19.85598480803965
 30
0.0
 10
-6.909758906039182
 20
-19.86191068633651
 30
0.0
 10
-6.912693580913079
 20
-19.868309278687
 30
0.0
 10
-6.915979480963117
 20
-19.87448906042477
 30
0.0
  0
SPLINE
  5
9B
330
1F
100
AcDbEntity
  8
0
  6
Continuous
 62
     7
370
    15
100
AcDbSpline
210
0.0
220
0.0
230
1.0
 70
     8
 71
     3
 72
     8
 73
     4
 74
     0
 42
0.00000001
 43
0.00000001
 40
39.0
 40
39.0
 40
39.0
 40
39.0
 40
40.0
 40
40.0
 40
40.0
 40
40.0
 10
-6.831161183905919
 20
-19.73500053098377
 30
0.0
 10
-6.851886438233122
 20
-19.77740044612015
 30
0.0
 10
-6.880951909937643
 20
-19.81571569855749
 30
0.0
 10
-6.906065667915088
 20
-19.85598480803965
 30
0.0
  0
SPLINE
  5
9C
330
1F
100
AcDbEntity
  8
0
  6
Continuous
 62
     7
370
    15
100
AcDbSpline
210
0.0
220
0.0
230
1.0
 70
     8
 71
     3
 72
     8
 73
     4
 74
     0
 42
0.00000001
 43
0.00000001
 40
38.0
 40
38.0
 40
38.0
 40
38.0
 40
39.0
 40
39.0
 40
39.0
 40
39.0
 10
-6.777855148108514
 20
-19.32130836891529
 30
0.0
 10
-6.758218602759185
 20
-19.46386410655107
 30
0.0
 10
-6.766933767114446
 20
-19.60362099815327
 30
0.0
 10
-6.831161183905919
 20
-19.73500053098377
 30
0.0
  0
SPLINE
  5
9D
330
1F
100
AcDbEntity
  8
0
  6
Continuous
 62
     7
370
    15
100
AcDbSpline
210
0.0
220
0.0
230
1.0
 70
     8
 71
     3
 72
     8
 73
     4
 74
     0
 42
0.00000001
 43
0.00000001
 40
37.0
 40
37.0
 40
37.0
 40
37.0
 40
38.0
 40
38.0
 40
38.0
 40
38.0
 10
-6.964511763922989
 20
-18.78417344262618
 30
0.0
 10
-6.876154004802527
 20
-18.95402099451648
 30
0.0
 10
-6.804219318184866
 20
-19.12991506743426
 30
0.0
 10
-6.777855148108514
 20
-19.32130836891529
 30
0.0
  0
SPLINE
  5
9E
330
1F
100
AcDbEntity
  8
0
  6
Continuous
 62
     7
370
    15
100
AcDbSpline
210
0.0
220
0.0
230
1.0
 70
     8
 71
     3
 72
    38
 73
    34
 74
     0
 42
0.00000001
 43
0.00000001
 40
26.0
 40
26.0
 40
26.0
 40
26.0
 40
27.0
 40
27.0
 40
27.0
 40
28.0
 40
28.0
 40
28.0
 40
29.0
 40
29.0
 40
29.0
 40
30.0
 40
30.0
 40
30.0
 40
31.0
 40
31.0
 40
31.0
 40
32.0
 40
32.0
 40
32.0
 40
33.0
 40
33.0
 40
33.0
 40
34.0
 40
34.0
 40
34.0
 40
35.0
 40
35.0
 40
35.0
 40
36.0
 40
36.0
 40
36.0
 40
37.0
 40
37.0
 40
37.0
 40
37.0
 10
-14.90923863755664
 20
-12.56741285973938
 30
0.0
 10
-14.85536360509821
 20
-12.59586524607729
 30
0.0
 10
-14.80129559177378
 20
-12.62395744105119
 30
0.0
 10
-14.74764346706024
 20
-12.65282369712327
 30
0.0
 10
-14.06575703715268
 20
-13.01969956209234
 30
0.0
 10
-13.39455384985054
 20
-13.40521541921875
 30
0.0
 10
-12.74005360184093
 20
-13.81898694095724
 30
0.0
 10
-12.33943764511621
 20
-14.07225428725823
 30
0.0
 10
-11.94193663708363
 20
-14.33066970989802
 30
0.0
 10
-11.54790717669417
 20
-14.59405872448439
 30
0.0
 10
-11.26113380958331
 20
-14.78575249717377
 30
0.0
 10
-10.98039483539477
 20
-14.98668426391842
 30
0.0
 10
-10.70055415744807
 20
-15.18847442439971
 30
0.0
 10
-10.46225120066255
 20
-15.36031221765042
 30
0.0
 10
-10.22746128240632
 20
-15.53714704260057
 30
0.0
 10
-9.994119611325956
 20
-15.71569613142809
 30
0.0
 10
-9.797049666336523
 20
-15.8664905265493
 30
0.0
 10
-9.602372023497104
 20
-16.02057218000893
 30
0.0
 10
-9.410177717820092
 20
-16.1775342955638
 30
0.0
 10
-9.232123339153746
 20
-16.32294862536708
 30
0.0
 10
-9.057460131599798
 20
-16.4726072798467
 30
0.0
 10
-8.883756358110562
 20
-16.62322536839097
 30
0.0
 10
-8.750880145473547
 20
-16.73844203187153
 30
0.0
 10
-8.618904220121358
 20
-16.85500551067146
 30
0.0
 10
-8.491751159381478
 20
-16.9764412571854
 30
0.0
 10
-8.291598873899513
 20
-17.16759383915869
 30
0.0
 10
-8.092705935159424
 20
-17.36027748493319
 30
0.0
 10
-7.899138934315541
 20
-17.55804955369183
 30
0.0
 10
-7.721647148685543
 20
-17.73939719722605
 30
0.0
 10
-7.555441540976274
 20
-17.93135267609234
 30
0.0
 10
-7.39854456203043
 20
-18.131159392222
 30
0.0
 10
-7.236576968152029
 20
-18.33742351718783
 30
0.0
 10
-7.085798167369262
 20
-18.55102679355563
 30
0.0
 10
-6.964511763922989
 20
-18.78417344262618
 30
0.0
  0
SPLINE
  5
9F
330
1F
100
AcDbEntity
  8
0
  6
Continuous
 62
     7
370
    15
100
AcDbSpline
210
0.0
220
0.0
230
1.0
 70
     8
 71
     3
 72
    17
 73
    13
 74
     0
 42
0.00000001
 43
0.00000001
 40
22.0
 40
22.0
 40
22.0
 40
22.0
 40
23.0
 40
23.0
 40
23.0
 40
24.0
 40
24.0
 40
24.0
 40
25.0
 40
25.0
 40
25.0
 40
26.0
 40
26.0
 40
26.0
 40
26.0
 10
-11.05217142614915
 20
-15.2419002716255
 30
0.0
 10
-11.36948371841043
 20
-15.00127483465176
 30
0.0
 10
-11.68861641402537
 20
-14.76281752286279
 30
0.0
 10
-12.01236859654247
 20
-14.53097292311745
 30
0.0
 10
-12.4245677101848
 20
-14.23578992489625
 30
0.0
 10
-12.83877982208502
 20
-13.94315195833584
 30
0.0
 10
-13.25838025665753
 20
-13.65864323653217
 30
0.0
 10
-13.72414456455561
 20
-13.34283337453605
 30
0.0
 10
-14.19685915256598
 20
-13.03726859951148
 30
0.0
 10
-14.66679915075312
 20
-12.727624802767
 30
0.0
 10
-14.74761401521116
 20
-12.67437580023786
 30
0.0
 10
-14.82968384908546
 20
-12.62303065786457
 30
0.0
 10
-14.90923863755664
 20
-12.56741285973938
 30
0.0
  0
SPLINE
  5
A0
330
1F
100
AcDbEntity
  8
0
  6
Continuous
 62
     7
370
    15
100
AcDbSpline
210
0.0
220
0.0
230
1.0
 70
     8
 71
     3
 72
    23
 73
    19
 74
     0
 42
0.00000001
 43
0.00000001
 40
16.0
 40
16.0
 40
16.0
 40
16.0
 40
17.0
 40
17.0
 40
17.0
 40
18.0
 40
18.0
 40
18.0
 40
19.0
 40
19.0
 40
19.0
 40
20.0
 40
20.0
 40
20.0
 40
21.0
 40
21.0
 40
21.0
 40
22.0
 40
22.0
 40
22.0
 40
22.0
 10
-7.947558759531324
 20
-18.07042910788309
 30
0.0
 10
-8.076628014502218
 20
-17.90247551474574
 30
0.0
 10
-8.213156128390713
 20
-17.74081410727827
 30
0.0
 10
-8.359331979247104
 20
-17.58761476233795
 30
0.0
 10
-8.50104617186031
 20
-17.4390914328489
 30
0.0
 10
-8.643441824445448
 20
-17.29110325414589
 30
0.0
 10
-8.78940973099635
 20
-17.14679373608926
 30
0.0
 10
-8.908613447825083
 20
-17.02894426991001
 30
0.0
 10
-9.031555352475007
 20
-16.91466958129251
 30
0.0
 10
-9.156372942074315
 20
-16.80275130780626
 30
0.0
 10
-9.335044781577272
 20
-16.64254447134925
 30
0.0
 10
-9.51528597117185
 20
-16.4839924903522
 30
0.0
 10
-9.697913205883033
 20
-16.32831868536933
 30
0.0
 10
-9.884013591462963
 20
-16.1696842273191
 30
0.0
 10
-10.07158306615233
 20
-16.01260436374659
 30
0.0
 10
-10.26253353592459
 20
-15.85987455609796
 30
0.0
 10
-10.52354045407981
 20
-15.65111118047066
 30
0.0
 10
-10.78587534779738
 20
-15.44383919066516
 30
0.0
 10
-11.05217142614915
 20
-15.2419002716255
 30
0.0
  0
SPLINE
  5
A1
330
1F
100
AcDbEntity
  8
0
  6
Continuous
 62
     7
370
    15
100
AcDbSpline
210
0.0
220
0.0
230
1.0
 70
     8
 71
     3
 72
     8
 73
     4
 74
     0
 42
0.00000001
 43
0.00000001
 40
15.0
 40
15.0
 40
15.0
 40
15.0
 40
16.0
 40
16.0
 40
16.0
 40
16.0
 10
-7.631155021187147
 20
-18.55152633937195
 30
0.0
 10
-7.721263755083549
 20
-18.38113061790941
 30
0.0
 10
-7.830262762475771
 20
-18.22306215789445
 30
0.0
 10
-7.947558759531324
 20
-18.07042910788309
 30
0.0
  0
SPLINE
  5
A2
330
1F
100
AcDbEntity
  8
0
  6
Continuous
 62
     7
370
    15
100
AcDbSpline
210
0.0
220
0.0
230
1.0
 70
     8
 71
     3
 72
     8
 73
     4
 74
     0
 42
0.00000001
 43
0.00000001
 40
14.0
 40
14.0
 40
14.0
 40
14.0
 40
15.0
 40
15.0
 40
15.0
 40
15.0
 10
-7.470913715378511
 20
-19.01346959643387
 30
0.0
 10
-7.490880881485366
 20
-18.84801172092369
 30
0.0
 10
-7.554120533136535
 20
-18.69719913364469
 30
0.0
 10
-7.631155021187147
 20
-18.55152633937195
 30
0.0
  0
SPLINE
  5
A3
330
1F
100
AcDbEntity
  8
0
  6
Continuous
 62
     7
370
    15
100
AcDbSpline
210
0.0
220
0.0
230
1.0
 70
     8
 71
     3
 72
     8
 73
     4
 74
     0
 42
0.00000001
 43
0.00000001
 40
13.0
 40
13.0
 40
13.0
 40
13.0
 40
14.0
 40
14.0
 40
14.0
 40
14.0
 10
-7.627907509484771
 20
-19.48171243181736
 30
0.0
 10
-7.492301576931466
 20
-19.35398249374585
 30
0.0
 10
-7.449105511810058
 20
-19.19418750814623
 30
0.0
 10
-7.470913715378511
 20
-19.01346959643387
 30
0.0
  0
SPLINE
  5
A4
330
1F
100
AcDbEntity
  8
0
  6
Continuous
 62
     7
370
    15
100
AcDbSpline
210
0.0
220
0.0
230
1.0
 70
     8
 71
     3
 72
     8
 73
     4
 74
     0
 42
0.00000001
 43
0.00000001
 40
12.0
 40
12.0
 40
12.0
 40
12.0
 40
13.0
 40
13.0
 40
13.0
 40
13.0
 10
-7.862285087009099
 20
-19.62728033356711
 30
0.0
 10
-7.776238303448326
 20
-19.59156581003741
 30
0.0
 10
-7.695972751603024
 20
-19.54582542579996
 30
0.0
 10
-7.627907509484771
 20
-19.48171243181736
 30
0.0
  0
SPLINE
  5
A5
330
1F
100
AcDbEntity
  8
0
  6
Continuous
 62
     7
370
    15
100
AcDbSpline
210
0.0
220
0.0
230
1.0
 70
     8
 71
     3
 72
     8
 73
     4
 74
     0
 42
0.00000001
 43
0.00000001
 40
11.0
 40
11.0
 40
11.0
 40
11.0
 40
12.0
 40
12.0
 40
12.0
 40
12.0
 10
-8.459106026214855
 20
-19.75621019697399
 30
0.0
 10
-8.254752471201117
 20
-19.7389005852175
 30
0.0
 10
-8.05335562056941
 20
-19.70658395001881
 30
0.0
 10
-7.862285087009099
 20
-19.62728033356711
 30
0.0
  0
SPLINE
  5
A6
330
1F
100
AcDbEntity
  8
0
  6
Continuous
 62
     7
370
    15
100
AcDbSpline
210
0.0
220
0.0
230
1.0
 70
     8
 71
     3
 72
    11
 73
     7
 74
     0
 42
0.00000001
 43
0.00000001
 40
9.0
 40
9.0
 40
9.0
 40
9.0
 40
10.0
 40
10.0
 40
10.0
 40
11.0
 40
11.0
 40
11.0
 40
11.0
 10
-11.12851807101462
 20
-19.49430250351501
 30
0.0
 10
-10.58285321231224
 20
-19.60010494615353
 30
0.0
 10
-10.03488137126966
 20
-19.69064539309182
 30
0.0
 10
-9.480803853141822
 20
-19.73968474069945
 30
0.0
 10
-9.140706131896012
 20
-19.76978536176919
 30
0.0
 10
-8.800163307705125
 20
-19.78509877944781
 30
0.0
 10
-8.459106026214855
 20
-19.75621019697399
 30
0.0
  0
SPLINE
  5
A7
330
1F
100
AcDbEntity
  8
0
  6
Continuous
 62
     7
370
    15
100
AcDbSpline
210
0.0
220
0.0
230
1.0
 70
     8
 71
     3
 72
     8
 73
     4
 74
     0
 42
0.00000001
 43
0.00000001
 40
8.0
 40
8.0
 40
8.0
 40
8.0
 40
9.0
 40
9.0
 40
9.0
 40
9.0
 10
-11.167567897696
 20
-19.48706922438508
 30
0.0
 10
-11.15070908924247
 20
-19.49018637009011
 30
0.0
 10
-11.13959624153999
 20
-19.4921539436211
 30
0.0
 10
-11.12851807101462
 20
-19.49430250351501
 30
0.0
  0
SPLINE
  5
A8
330
1F
100
AcDbEntity
  8
0
  6
Continuous
 62
     7
370
    15
100
AcDbSpline
210
0.0
220
0.0
230
1.0
 70
     8
 71
     3
 72
    14
 73
    10
 74
     0
 42
0.00000001
 43
0.00000001
 40
5.0
 40
5.0
 40
5.0
 40
5.0
 40
6.0
 40
6.0
 40
6.0
 40
7.0
 40
7.0
 40
7.0
 40
8.0
 40
8.0
 40
8.0
 40
8.0
 10
-10.59206166545037
 20
-20.04722059259996
 30
0.0
 10
-10.60385760603977
 20
-20.04524446853216
 30
0.0
 10
-10.61716984182738
 20
-20.03962581577394
 30
0.0
 10
-10.62547075048675
 20
-20.0313709850075
 30
0.0
 10
-10.80301290968954
 20
-19.85481641280881
 30
0.0
 10
-10.97994228041932
 20
-19.67764525189855
 30
0.0
 10
-11.15694789343588
 20
-19.50055223339439
 30
0.0
 10
-11.15932803036899
 20
-19.49817067137181
 30
0.0
 10
-11.1611649706984
 20
-19.49524781286478
 30
0.0
 10
-11.167567897696
 20
-19.48706922438508
 30
0.0
  0
SPLINE
  5
A9
330
1F
100
AcDbEntity
  8
0
  6
Continuous
 62
     7
370
    15
100
AcDbSpline
210
0.0
220
0.0
230
1.0
 70
     8
 71
     3
 72
     8
 73
     4
 74
     0
 42
0.00000001
 43
0.00000001
 40
4.0
 40
4.0
 40
4.0
 40
4.0
 40
5.0
 40
5.0
 40
5.0
 40
5.0
 10
-9.924609848047032
 20
-20.15703727476608
 30
0.0
 10
-10.14762471218141
 20
-20.12400156317137
 30
0.0
 10
-10.36968191619064
 20
-20.0844674435844
 30
0.0
 10
-10.59206166545037
 20
-20.04722059259996
 30
0.0
  0
SPLINE
  5
AA
330
1F
100
AcDbEntity
  8
0
  6
Continuous
 62
     7
370
    15
100
AcDbSpline
210
0.0
220
0.0
230
1.0
 70
     8
 71
     3
 72
     8
 73
     4
 74
     0
 42
0.00000001
 43
0.00000001
 40
3.0
 40
3.0
 40
3.0
 40
3.0
 40
4.0
 40
4.0
 40
4.0
 40
4.0
 10
-8.341497429845699
 20
-20.28464596147501
 30
0.0
 10
-8.873024213411465
 20
-20.29002591174664
 30
0.0
 10
-9.399842738876707
 20
-20.23477329279865
 30
0.0
 10
-9.924609848047032
 20
-20.15703727476608
 30
0.0
  0
SPLINE
  5
AB
330
1F
100
AcDbEntity
  8
0
  6
Continuous
 62
     7
370
    15
100
AcDbSpline
210
0.0
220
0.0
230
1.0
 70
     8
 71
     3
 72
     8
 73
     4
 74
     0
 42
0.00000001
 43
0.00000001
 40
2.0
 40
2.0
 40
2.0
 40
2.0
 40
3.0
 40
3.0
 40
3.0
 40
3.0
 10
-7.616950709079448
 20
-20.21678996999427
 30
0.0
 10
-7.855947239097381
 20
-20.2655845584851
 30
0.0
 10
-8.098159364751394
 20
-20.28218221929289
 30
0.0
 10
-8.341497429845699
 20
-20.28464596147501
 30
0.0
  0
SPLINE
  5
AC
330
1F
100
AcDbEntity
  8
0
  6
Continuous
 62
     7
370
    15
100
AcDbSpline
210
0.0
220
0.0
230
1.0
 70
     8
 71
     3
 72
     8
 73
     4
 74
     0
 42
0.00000001
 43
0.00000001
 40
1.0
 40
1.0
 40
1.0
 40
1.0
 40
2.0
 40
2.0
 40
2.0
 40
2.0
 10
-7.090020789120505
 20
-20.01968085731135
 30
0.0
 10
-7.251295670758062
 20
-20.12357213621046
 30
0.0
 10
-7.431050400123524
 20
-20.17883674966153
 30
0.0
 10
-7.616950709079448
 20
-20.21678996999427
 30
0.0
  0
SPLINE
  5
AD
330
1F
100
AcDbEntity
  8
0
  6
Continuous
 62
     7
370
    15
100
AcDbSpline
210
0.0
220
0.0
230
1.0
 70
     8
 71
     3
 72
     8
 73
     4
 74
     0
 42
0.00000001
 43
0.00000001
 40
0.0
 40
0.0
 40
0.0
 40
0.0
 40
1.0
 40
1.0
 40
1.0
 40
1.0
 10
-6.993808367326262
 20
-19.95231794678791
 30
0.0
 10
-7.025837490723934
 20
-19.97483697310927
 30
0.0
 10
-7.05713263366483
 20
-19.99849553659962
 30
0.0
 10
-7.090020789120505
 20
-20.01968085731135
 30
0.0
  0
SPLINE
  5
AF
330
1F
100
AcDbEntity
  8
0
  6
Continuous
 62
     7
370
    15
100
AcDbSpline
210
0.0
220
0.0
230
1.0
 70
     8
 71
     3
 72
    17
 73
    13
 74
     0
 42
0.00000001
 43
0.00000001
 40
40.0
 40
40.0
 40
40.0
 40
40.0
 40
41.0
 40
41.0
 40
41.0
 40
42.0
 40
42.0
 40
42.0
 40
43.0
 40
43.0
 40
43.0
 40
44.0
 40
44.0
 40
44.0
 40
44.0
 10
-21.25550443403528
 20
-9.435005990294123
 30
0.0
 10
-21.31769818877148
 20
-9.366645398382818
 30
0.0
 10
-21.38138505131262
 20
-9.299600074986078
 30
0.0
 10
-21.44221457977303
 20
-9.230053274225531
 30
0.0
 10
-21.50554243852465
 20
-9.15765044571632
 30
0.0
 10
-21.5628331877772
 20
-9.080659734632937
 30
0.0
 10
-21.60373172662081
 20
-8.992707591603436
 30
0.0
 10
-21.66148729997848
 20
-8.868504371435696
 30
0.0
 10
-21.65553902662324
 20
-8.749982005099335
 30
0.0
 10
-21.5730004181028
 20
-8.637986400097814
 30
0.0
 10
-21.55153374613312
 20
-8.60885859557359
 30
0.0
 10
-21.53025869488543
 20
-8.579589998518495
 30
0.0
 10
-21.50889567845924
 20
-8.550386090180547
 30
0.0
  0
SPLINE
  5
B0
330
1F
100
AcDbEntity
  8
0
  6
Continuous
 62
     7
370
    15
100
AcDbSpline
210
0.0
220
0.0
230
1.0
 70
     8
 71
     3
 72
     8
 73
     4
 74
     0
 42
0.00000001
 43
0.00000001
 40
39.0
 40
39.0
 40
39.0
 40
39.0
 40
40.0
 40
40.0
 40
40.0
 40
40.0
 10
-21.24427746041755
 20
-9.453201176400015
 30
0.0
 10
-21.2479754488399
 20
-9.447095736829683
 30
0.0
 10
-21.25079089122797
 20
-9.440187437478071
 30
0.0
 10
-21.25550443403528
 20
-9.435005990294123
 30
0.0
  0
SPLINE
  5
B2
330
1F
100
AcDbEntity
  8
0
  6
Continuous
 62
     7
370
    15
100
AcDbSpline
210
0.0
220
0.0
230
1.0
 70
     8
 71
     3
 72
    11
 73
     7
 74
     0
 42
0.00000001
 43
0.00000001
 40
36.0
 40
36.0
 40
36.0
 40
36.0
 40
37.0
 40
37.0
 40
37.0
 40
38.0
 40
38.0
 40
38.0
 40
38.0
 10
-20.44673124399379
 20
-10.19504539566226
 30
0.0
 10
-20.55502593060386
 20
-10.12346196391008
 30
0.0
 10
-20.64907019752396
 20
-10.03493611845535
 30
0.0
 10
-20.74289761332939
 20
-9.946104116279045
 30
0.0
 10
-20.76524527264171
 20
-9.924946406675803
 30
0.0
 10
-20.78914247923991
 20
-9.905425174816232
 30
0.0
 10
-20.81232714110211
 20
-9.885151495715458
 30
0.0
  0
SPLINE
  5
B3
330
1F
100
AcDbEntity
  8
0
  6
Continuous
 62
     7
370
    15
100
AcDbSpline
210
0.0
220
0.0
230
1.0
 70
     8
 71
     3
 72
    11
 73
     7
 74
     0
 42
0.00000001
 43
0.00000001
 40
34.0
 40
34.0
 40
34.0
 40
34.0
 40
35.0
 40
35.0
 40
35.0
 40
36.0
 40
36.0
 40
36.0
 40
36.0
 10
-19.74918462463607
 20
-9.980176105434811
 30
0.0
 10
-19.81705961730977
 20
-10.06123863856733
 30
0.0
 10
-19.89605007035004
 20
-10.13099617443353
 30
0.0
 10
-19.98313811928502
 20
-10.19121249876992
 30
0.0
 10
-20.14521663262734
 20
-10.30328034727198
 30
0.0
 10
-20.28137609368306
 20
-10.30434655171194
 30
0.0
 10
-20.44673124399379
 20
-10.19504539566226
 30
0.0
  0
SPLINE
  5
B4
330
1F
100
AcDbEntity
  8
0
  6
Continuous
 62
     7
370
    15
100
AcDbSpline
210
0.0
220
0.0
230
1.0
 70
     8
 71
     3
 72
    11
 73
     7
 74
     0
 42
0.00000001
 43
0.00000001
 40
32.0
 40
32.0
 40
32.0
 40
32.0
 40
33.0
 40
33.0
 40
33.0
 40
34.0
 40
34.0
 40
34.0
 40
34.0
 10
-19.66935218123277
 20
-9.429254210427743
 30
0.0
 10
-19.58181617917377
 20
-9.54725933794245
 30
0.0
 10
-19.55508197570924
 20
-9.682510066944879
 30
0.0
 10
-19.6309907915238
 20
-9.819146457943905
 30
0.0
 10
-19.66309295075694
 20
-9.876930392066521
 30
0.0
 10
-19.70646851777309
 20
-9.929160277487005
 30
0.0
 10
-19.74918462463607
 20
-9.980176105434811
 30
0.0
  0
SPLINE
  5
B5
330
1F
100
AcDbEntity
  8
0
  6
Continuous
 62
     7
370
    15
100
AcDbSpline
210
0.0
220
0.0
230
1.0
 70
     8
 71
     3
 72
    14
 73
    10
 74
     0
 42
0.00000001
 43
0.00000001
 40
29.0
 40
29.0
 40
29.0
 40
29.0
 40
30.0
 40
30.0
 40
30.0
 40
31.0
 40
31.0
 40
31.0
 40
32.0
 40
32.0
 40
32.0
 40
32.0
 10
-20.51379892348163
 20
-8.472066027386429
 30
0.0
 10
-20.46728732832492
 20
-8.532085570618202
 30
0.0
 10
-20.420289837037
 20
-8.592164433199272
 30
0.0
 10
-20.36857488394574
 20
-8.647629509236069
 30
0.0
 10
-20.24047709465428
 20
-8.785015794190997
 30
0.0
 10
-20.10659552036205
 20
-8.917097480480086
 30
0.0
 10
-19.9807469379085
 20
-9.056465886754351
 30
0.0
 10
-19.87226865227147
 20
-9.176597604033615
 30
0.0
 10
-19.76567849142733
 20
-9.299399582711004
 30
0.0
 10
-19.66935218123277
 20
-9.429254210427743
 30
0.0
  0
SPLINE
  5
B6
330
1F
100
AcDbEntity
  8
0
  6
Continuous
 62
     7
370
    15
100
AcDbSpline
210
0.0
220
0.0
230
1.0
 70
     8
 71
     3
 72
    14
 73
    10
 74
     0
 42
0.00000001
 43
0.00000001
 40
26.0
 40
26.0
 40
26.0
 40
26.0
 40
27.0
 40
27.0
 40
27.0
 40
28.0
 40
28.0
 40
28.0
 40
29.0
 40
29.0
 40
29.0
 40
29.0
 10
-20.33599285552227
 20
-8.298348125471078
 30
0.0
 10
-20.3733167504063
 20
-8.270027945871044
 30
0.0
 10
-20.41532429090807
 20
-8.268014116310926
 30
0.0
 10
-20.45348521803133
 20
-8.295928887645573
 30
0.0
 10
-20.47735270557617
 20
-8.313388044728562
 30
0.0
 10
-20.49967067552451
 20
-8.335160205409116
 30
0.0
 10
-20.51673095600215
 20
-8.359218506496392
 30
0.0
 10
-20.54261007609414
 20
-8.395713177443895
 30
0.0
 10
-20.54097339052493
 20
-8.436999889877121
 30
0.0
 10
-20.51379892348163
 20
-8.472066027386429
 30
0.0
  0
SPLINE
  5
B7
330
1F
100
AcDbEntity
  8
0
  6
Continuous
 62
     7
370
    15
100
AcDbSpline
210
0.0
220
0.0
230
1.0
 70
     8
 71
     3
 72
    20
 73
    16
 74
     0
 42
0.00000001
 43
0.00000001
 40
21.0
 40
21.0
 40
21.0
 40
21.0
 40
22.0
 40
22.0
 40
22.0
 40
23.0
 40
23.0
 40
23.0
 40
24.0
 40
24.0
 40
24.0
 40
25.0
 40
25.0
 40
25.0
 40
26.0
 40
26.0
 40
26.0
 40
26.0
 10
-19.74568721755691
 20
-9.119527520979
 30
0.0
 10
-19.72997572488578
 20
-9.10023216580073
 30
0.0
 10
-19.71492927396823
 20
-9.08208543273688
 30
0.0
 10
-19.70024408323182
 20
-9.063650831599706
 30
0.0
 10
-19.66703842971754
 20
-9.021967558331523
 30
0.0
 10
-19.66786331900693
 20
-8.977807598318515
 30
0.0
 10
-19.69840583657043
 20
-8.936990660691835
 30
0.0
 10
-19.73340472767027
 20
-8.890218392919216
 30
0.0
 10
-19.77007026090762
 20
-8.844050125567826
 30
0.0
 10
-19.81087882613361
 20
-8.802386981688425
 30
0.0
 10
-19.94302677908319
 20
-8.667471267469383
 30
0.0
 10
-20.07663313297111
 20
-8.533953981673449
 30
0.0
 10
-20.21141358244778
 20
-8.401666488713076
 30
0.0
 10
-20.24979694228611
 20
-8.363992823431785
 30
0.0
 10
-20.29303160358074
 20
-8.33094541422764
 30
0.0
 10
-20.33599285552227
 20
-8.298348125471078
 30
0.0
  0
SPLINE
  5
B9
330
1F
100
AcDbEntity
  8
0
  6
Continuous
 62
     7
370
    15
100
AcDbSpline
210
0.0
220
0.0
230
1.0
 70
     8
 71
     3
 72
    38
 73
    34
 74
     0
 42
0.00000001
 43
0.00000001
 40
9.0
 40
9.0
 40
9.0
 40
9.0
 40
10.0
 40
10.0
 40
10.0
 40
11.0
 40
11.0
 40
11.0
 40
12.0
 40
12.0
 40
12.0
 40
13.0
 40
13.0
 40
13.0
 40
14.0
 40
14.0
 40
14.0
 40
15.0
 40
15.0
 40
15.0
 40
16.0
 40
16.0
 40
16.0
 40
17.0
 40
17.0
 40
17.0
 40
18.0
 40
18.0
 40
18.0
 40
19.0
 40
19.0
 40
19.0
 40
20.0
 40
20.0
 40
20.0
 40
20.0
 10
-20.85911541144192
 20
-8.75581063402885
 30
0.0
 10
-20.92287655677177
 20
-8.688419310784024
 30
0.0
 10
-20.98367698965547
 20
-8.61923935180508
 30
0.0
 10
-21.03421716430266
 20
-8.541208726213563
 30
0.0
 10
-21.12062798400013
 20
-8.407795605551218
 30
0.0
 10
-21.12524724080971
 20
-8.272840990842974
 30
0.0
 10
-21.03906920799303
 20
-8.138606610416003
 30
0.0
 10
-20.94713346764288
 20
-7.995403775463775
 30
0.0
 10
-20.82761538127228
 20
-7.879062666289029
 30
0.0
 10
-20.68195969271214
 20
-7.790761178719054
 30
0.0
 10
-20.52965068355299
 20
-7.698426265797757
 30
0.0
 10
-20.38041957447084
 20
-7.716035398702975
 30
0.0
 10
-20.24313714291119
 20
-7.819187412438479
 30
0.0
 10
-20.14311554602643
 20
-7.894342148096804
 30
0.0
 10
-20.04825924531159
 20
-7.977396332834516
 30
0.0
 10
-19.95757991152849
 20
-8.06373436905614
 30
0.0
 10
-19.79627931890172
 20
-8.21731263934915
 30
0.0
 10
-19.63803275239212
 20
-8.374227459747202
 30
0.0
 10
-19.48207369199998
 20
-8.533243099541833
 30
0.0
 10
-19.37186273507991
 20
-8.645614254586505
 30
0.0
 10
-19.2635870496628
 20
-8.760575984776331
 30
0.0
 10
-19.18470644726934
 20
-8.898853366302326
 30
0.0
 10
-19.17429604991906
 20
-8.917102705808169
 30
0.0
 10
-19.16502121136304
 20
-8.936021837365807
 30
0.0
 10
-19.15571122060002
 20
-8.954873277173538
 30
0.0
 10
-19.09325418058388
 20
-9.081341773547448
 30
0.0
 10
-19.10935959173655
 20
-9.201715993551835
 30
0.0
 10
-19.19258897341124
 20
-9.311192198091652
 30
0.0
 10
-19.24225714174837
 20
-9.376523762330246
 30
0.0
 10
-19.30169797989707
 20
-9.434428116513233
 30
0.0
 10
-19.35686568726407
 20
-9.495563148529225
 30
0.0
 10
-19.35852033489849
 20
-9.49739664489238
 30
0.0
 10
-19.36151919817737
 20
-9.498017271357428
 30
0.0
 10
-19.36530459208732
 20
-9.499910146448597
 30
0.0
  0
SPLINE
  5
BA
330
1F
100
AcDbEntity
  8
0
  6
Continuous
 62
     7
370
    15
100
AcDbSpline
210
0.0
220
0.0
230
1.0
 70
     8
 71
     3
 72
     8
 73
     4
 74
     0
 42
0.00000001
 43
0.00000001
 40
8.0
 40
8.0
 40
8.0
 40
8.0
 40
9.0
 40
9.0
 40
9.0
 40
9.0
 10
-20.47372404181878
 20
-9.170566447252002
 30
0.0
 10
-20.6017718936
 20
-9.031927330515035
 30
0.0
 10
-20.72941686071173
 20
-8.892894948462525
 30
0.0
 10
-20.85911541144192
 20
-8.75581063402885
 30
0.0
  0
SPLINE
  5
BB
330
1F
100
AcDbEntity
  8
0
  6
Continuous
 62
     7
370
    15
100
AcDbSpline
210
0.0
220
0.0
230
1.0
 70
     8
 71
     3
 72
    17
 73
    13
 74
     0
 42
0.00000001
 43
0.00000001
 40
4.0
 40
4.0
 40
4.0
 40
4.0
 40
5.0
 40
5.0
 40
5.0
 40
6.0
 40
6.0
 40
6.0
 40
7.0
 40
7.0
 40
7.0
 40
8.0
 40
8.0
 40
8.0
 40
8.0
 10
-20.52953143622248
 20
-9.567445374040693
 30
0.0
 10
-20.48693551190497
 20
-9.61015673060547
 30
0.0
 10
-20.44312517384241
 20
-9.65240517060673
 30
0.0
 10
-20.39546471905636
 20
-9.689148489977743
 30
0.0
 10
-20.31605338959204
 20
-9.750369977421673
 30
0.0
 10
-20.26661145420858
 20
-9.738134515487632
 30
0.0
 10
-20.19316258033759
 20
-9.659467439000059
 30
0.0
 10
-20.13032955421573
 20
-9.592170320107217
 30
0.0
 10
-20.13651563009869
 20
-9.5394180206378
 30
0.0
 10
-20.20458586003006
 20
-9.464451782751492
 30
0.0
 10
-20.29388113504223
 20
-9.366110514801015
 30
0.0
 10
-20.38359758337209
 20
-9.268146598666986
 30
0.0
 10
-20.47372404181878
 20
-9.170566447252002
 30
0.0
  0
SPLINE
  5
BC
330
1F
100
AcDbEntity
  8
0
  6
Continuous
 62
     7
370
    15
100
AcDbSpline
210
0.0
220
0.0
230
1.0
 70
     8
 71
     3
 72
    14
 73
    10
 74
     0
 42
0.00000001
 43
0.00000001
 40
1.0
 40
1.0
 40
1.0
 40
1.0
 40
2.0
 40
2.0
 40
2.0
 40
3.0
 40
3.0
 40
3.0
 40
4.0
 40
4.0
 40
4.0
 40
4.0
 10
-20.99747390431036
 20
-8.804972539331057
 30
0.0
 10
-21.01197511005806
 20
-8.82299472551292
 30
0.0
 10
-21.02482205413306
 20
-8.838293298509553
 30
0.0
 10
-21.03694882330552
 20
-8.854143885851022
 30
0.0
 10
-21.10146508791934
 20
-8.938472041197985
 30
0.0
 10
-21.09589301777324
 20
-8.989087864344611
 30
0.0
 10
-21.02735200359695
 20
-9.061863294372019
 30
0.0
 10
-20.86523465656654
 20
-9.233996645241353
 30
0.0
 10
-20.69655340680689
 20
-9.399972125123483
 30
0.0
 10
-20.52953143622248
 20
-9.567445374040693
 30
0.0
  0
CIRCLE
  5
BE
330
1F
100
AcDbEntity
  8
0
  6
Continuous
 62
     7
370
    15
100
AcDbCircle
 10
16.0
 20
0.0
 30
0.0
 40
4.572000000000004
  0
CIRCLE
  5
E7
330
1F
100
AcDbEntity
  8
0
  6
Continuous
 62
     7
370
    15
100
AcDbCircle
 10
-16.0
 20
0.0
 30
0.0
 40
4.572000000000001
  0
SPLINE
  5
E9
330
1F
100
AcDbEntity
  8
0
  6
Continuous
 62
     7
370
    15
100
AcDbSpline
210
0.0
220
0.0
230
1.0
 70
     8
 71
     3
 72
    20
 73
    16
 74
     0
 42
0.00000001
 43
0.00000001
 40
6.0
 40
6.0
 40
6.0
 40
6.0
 40
7.0
 40
7.0
 40
7.0
 40
8.0
 40
8.0
 40
8.0
 40
9.0
 40
9.0
 40
9.0
 40
10.0
 40
10.0
 40
10.0
 40
11.0
 40
11.0
 40
11.0
 40
11.0
 10
-19.14890926855026
 20
-11.50516304307003
 30
0.0
 10
-19.13873959256331
 20
-11.49499336708308
 30
0.0
 10
-19.130333227283
 20
-11.48658652677295
 30
0.0
 10
-19.1219268620027
 20
-11.47818016149265
 30
0.0
 10
-18.81586158367981
 20
-11.17211535819958
 30
0.0
 10
-18.50979903677842
 20
-10.86604758597015
 30
0.0
 10
-18.20372508916124
 20
-10.55999121445645
 30
0.0
 10
-18.17860776846014
 20
-10.53487531884482
 30
0.0
 10
-18.17851763155103
 20
-10.53485976161807
 30
0.0
 10
-18.15289749178119
 20
-10.56047491357474
 30
0.0
 10
-17.97650431096522
 20
-10.73683460478814
 30
0.0
 10
-17.80015079513955
 20
-10.91323443602167
 30
0.0
 10
-17.62370571731528
 20
-11.08954223022677
 30
0.0
 10
-17.61563377303106
 20
-11.09760799912327
 30
0.0
 10
-17.60680581878199
 20
-11.10491680799526
 30
0.0
 10
-17.59925723860633
 20
-11.1117397801147
 30
0.0
  0
SPLINE
  5
ED
330
1F
100
AcDbEntity
  8
0
  6
Continuous
 62
     7
370
    15
100
AcDbSpline
210
0.0
220
0.0
230
1.0
 70
     8
 71
     3
 72
    20
 73
    16
 74
     0
 42
0.00000001
 43
0.00000001
 40
0.0
 40
0.0
 40
0.0
 40
0.0
 40
1.0
 40
1.0
 40
1.0
 40
2.0
 40
2.0
 40
2.0
 40
3.0
 40
3.0
 40
3.0
 40
4.0
 40
4.0
 40
4.0
 40
5.0
 40
5.0
 40
5.0
 40
5.0
 10
-19.17498733707042
 20
-9.53836606709256
 30
0.0
 10
-19.16464154377621
 20
-9.548711860386767
 30
0.0
 10
-19.15628600668706
 20
-9.557067397475912
 30
0.0
 10
-19.14793035084047
 20
-9.565423053322508
 30
0.0
 10
-18.97414769642225
 20
-9.739205945255653
 30
0.0
 10
-18.80036337939965
 20
-9.912987174584396
 30
0.0
 10
-18.62658357516036
 20
-10.08677291669648
 30
0.0
 10
-18.59473246918921
 20
-10.11862521024218
 30
0.0
 10
-18.59472878770806
 20
-10.11864623031189
 30
0.0
 10
-18.62572531502586
 20
-10.14964323265951
 30
0.0
 10
-18.92984059592125
 20
-10.45376516397242
 30
0.0
 10
-19.23396003332758
 20
-10.75788270125948
 30
0.0
 10
-19.53807840191683
 20
-11.06200154487854
 30
0.0
 10
-19.5469431709773
 20
-11.07086631393901
 30
0.0
 10
-19.55580794003776
 20
-11.07973060796965
 30
0.0
 10
-19.56507482184421
 20
-11.08899748977609
 30
0.0
  0
SPLINE
  5
F0
330
1F
100
AcDbEntity
  8
0
  6
Continuous
 62
     7
370
    15
100
AcDbSpline
210
0.0
220
0.0
230
1.0
 70
     8
 71
     3
 72
    14
 73
    10
 74
     0
 42
0.00000001
 43
0.00000001
 40
3.0
 40
3.0
 40
3.0
 40
3.0
 40
4.0
 40
4.0
 40
4.0
 40
5.0
 40
5.0
 40
5.0
 40
6.0
 40
6.0
 40
6.0
 40
6.0
 10
-17.74884460521183
 20
-12.24649149870091
 30
0.0
 10
-17.74046389154201
 20
-12.25487221237072
 30
0.0
 10
-17.73471579315678
 20
-12.26062031075595
 30
0.0
 10
-17.72896793228646
 20
-12.26636817162628
 30
0.0
 10
-17.52924710563124
 20
-12.46609184846043
 30
0.0
 10
-17.32933507947186
 20
-12.66562527585009
 30
0.0
 10
-17.13000900260039
 20
-12.86574132731887
 30
0.0
 10
-17.09965910963052
 20
-12.89621140283421
 30
0.0
 10
-17.07112098040935
 20
-12.92862150015072
 30
0.0
 10
-17.04332556031802
 20
-12.96147123756938
 30
0.0
  0
SPLINE
  5
F1
330
1F
100
AcDbEntity
  8
0
  6
Continuous
 62
     7
370
    15
100
AcDbSpline
210
0.0
220
0.0
230
1.0
 70
     8
 71
     3
 72
     8
 73
     4
 74
     0
 42
0.00000001
 43
0.00000001
 40
6.0
 40
6.0
 40
6.0
 40
6.0
 40
7.0
 40
7.0
 40
7.0
 40
7.0
 10
-17.04332556031802
 20
-12.96147123756938
 30
0.0
 10
-16.99167770518936
 20
-13.02251185740784
 30
0.0
 10
-16.98597805984616
 20
-13.07988857221383
 30
0.0
 10
-17.03047077825091
 20
-13.14743638809628
 30
0.0
  0
SPLINE
  5
F2
330
1F
100
AcDbEntity
  8
0
  6
Continuous
 62
     7
370
    15
100
AcDbSpline
210
0.0
220
0.0
230
1.0
 70
     8
 71
     3
 72
     8
 73
     4
 74
     0
 42
0.00000001
 43
0.00000001
 40
7.0
 40
7.0
 40
7.0
 40
7.0
 40
8.0
 40
8.0
 40
8.0
 40
8.0
 10
-17.03047077825091
 20
-13.14743638809628
 30
0.0
 10
-17.05848518709113
 20
-13.18996770835776
 30
0.0
 10
-17.09243651867161
 20
-13.22904936203738
 30
0.0
 10
-17.12696216130928
 20
-13.26671115157307
 30
0.0
  0
SPLINE
  5
F3
330
1F
100
AcDbEntity
  8
0
  6
Continuous
 62
     7
370
    15
100
AcDbSpline
210
0.0
220
0.0
230
1.0
 70
     8
 71
     3
 72
     8
 73
     4
 74
     0
 42
0.00000001
 43
0.00000001
 40
8.0
 40
8.0
 40
8.0
 40
8.0
 40
9.0
 40
9.0
 40
9.0
 40
9.0
 10
-17.12696216130928
 20
-13.26671115157307
 30
0.0
 10
-17.16827122983363
 20
-13.3117720056473
 30
0.0
 10
-17.21303234008891
 20
-13.35366773600424
 30
0.0
 10
-17.25718374956512
 20
-13.39781914548044
 30
0.0
  0
SPLINE
  5
F5
330
1F
100
AcDbEntity
  8
0
  6
Continuous
 62
     7
370
    15
100
AcDbSpline
210
0.0
220
0.0
230
1.0
 70
     8
 71
     3
 72
    17
 73
    13
 74
     0
 42
0.00000001
 43
0.00000001
 40
10.0
 40
10.0
 40
10.0
 40
10.0
 40
11.0
 40
11.0
 40
11.0
 40
12.0
 40
12.0
 40
12.0
 40
13.0
 40
13.0
 40
13.0
 40
14.0
 40
14.0
 40
14.0
 40
14.0
 10
-16.86706598164003
 20
-13.78793691340553
 30
0.0
 10
-16.86332132153747
 20
-13.78553943788382
 30
0.0
 10
-16.86069298152132
 20
-13.78448629676401
 30
0.0
 10
-16.85890924453224
 20
-13.78262465488379
 30
0.0
 10
-16.75621967233036
 20
-13.67546315191884
 30
0.0
 10
-16.65103073070958
 20
-13.57054877753633
 30
0.0
 10
-16.55174783489049
 20
-13.46031549421455
 30
0.0
 10
-16.46523041553157
 20
-13.36425567575124
 30
0.0
 10
-16.46054139613893
 20
-13.24230934454433
 30
0.0
 10
-16.53050212601238
 20
-13.13321898297907
 30
0.0
 10
-16.54315739555339
 20
-13.11348576906056
 30
0.0
 10
-16.55756885035371
 20
-13.09487885085471
 30
0.0
 10
-16.57116942924448
 20
-13.0757517749916
 30
0.0
  0
SPLINE
  5
F6
330
1F
100
AcDbEntity
  8
0
  6
Continuous
 62
     7
370
    15
100
AcDbSpline
210
0.0
220
0.0
230
1.0
 70
     8
 71
     3
 72
    11
 73
     7
 74
     0
 42
0.00000001
 43
0.00000001
 40
14.0
 40
14.0
 40
14.0
 40
14.0
 40
15.0
 40
15.0
 40
15.0
 40
16.0
 40
16.0
 40
16.0
 40
16.0
 10
-16.57116942924448
 20
-13.0757517749916
 30
0.0
 10
-16.55839753988165
 20
-13.07922400549007
 30
0.0
 10
-16.54838509876643
 20
-13.0852884737381
 30
0.0
 10
-16.53847431403355
 20
-13.09151350206662
 30
0.0
 10
-16.39336054079553
 20
-13.18266056209017
 30
0.0
 10
-16.27897573432694
 20
-13.18028968823859
 30
0.0
 10
-16.14313228686164
 20
-13.07642809870351
 30
0.0
  0
SPLINE
  5
F7
330
1F
100
AcDbEntity
  8
0
  6
Continuous
 62
     7
370
    15
100
AcDbSpline
210
0.0
220
0.0
230
1.0
 70
     8
 71
     3
 72
     8
 73
     4
 74
     0
 42
0.00000001
 43
0.00000001
 40
16.0
 40
16.0
 40
16.0
 40
16.0
 40
17.0
 40
17.0
 40
17.0
 40
17.0
 10
-16.14313228686164
 20
-13.07642809870351
 30
0.0
 10
-16.01671770637279
 20
-12.97977603680716
 30
0.0
 10
-15.90664652697843
 20
-12.86572790772632
 30
0.0
 10
-15.80923358606148
 20
-12.73994808583979
 30
0.0
  0
SPLINE
  5
F8
330
1F
100
AcDbEntity
  8
0
  6
Continuous
 62
     7
370
    15
100
AcDbSpline
210
0.0
220
0.0
230
1.0
 70
     8
 71
     3
 72
    17
 73
    13
 74
     0
 42
0.00000001
 43
0.00000001
 40
17.0
 40
17.0
 40
17.0
 40
17.0
 40
18.0
 40
18.0
 40
18.0
 40
19.0
 40
19.0
 40
19.0
 40
20.0
 40
20.0
 40
20.0
 40
21.0
 40
21.0
 40
21.0
 40
21.0
 10
-15.80923358606148
 20
-12.73994808583979
 30
0.0
 10
-15.69608931997826
 20
-12.59385480110469
 30
0.0
 10
-15.68399316054008
 20
-12.43969527244329
 30
0.0
 10
-15.80058531184331
 20
-12.27332450836884
 30
0.0
 10
-15.85270273395297
 20
-12.19895573924367
 30
0.0
 10
-15.91977065095573
 20
-12.13433588843887
 30
0.0
 10
-15.98428908289311
 20
-12.06950559942203
 30
0.0
 10
-16.37241552579598
 20
-11.67950183865472
 30
0.0
 10
-16.76177134588338
 20
-11.29072127968418
 30
0.0
 10
-17.15071579014319
 20
-10.90153172003519
 30
0.0
 10
-17.15766571398313
 20
-10.89457752092684
 30
0.0
 10
-17.16461991309148
 20
-10.88762712205708
 30
0.0
 10
-17.1726859195029
 20
-10.87956111564566
 30
0.0
  0
SPLINE
  5
FE
330
1F
100
AcDbEntity
  8
0
  6
Continuous
 62
     7
370
    15
100
AcDbSpline
210
0.0
220
0.0
230
1.0
 70
     8
 71
     3
 72
     8
 73
     4
 74
     0
 42
0.00000001
 43
0.00000001
 40
4.0
 40
4.0
 40
4.0
 40
4.0
 40
5.0
 40
5.0
 40
5.0
 40
5.0
 10
-14.07182138664325
 20
-15.55487684792578
 30
0.0
 10
-14.03879208795115
 20
-15.53951105820905
 30
0.0
 10
-14.00681498031914
 20
-15.52095449316455
 30
0.0
 10
-13.97669761444812
 20
-15.50042512926102
 30
0.0
  0
SPLINE
  5
FF
330
1F
100
AcDbEntity
  8
0
  6
Continuous
 62
     7
370
    15
100
AcDbSpline
210
0.0
220
0.0
230
1.0
 70
     8
 71
     3
 72
     8
 73
     4
 74
     0
 42
0.00000001
 43
0.00000001
 40
5.0
 40
5.0
 40
5.0
 40
5.0
 40
6.0
 40
6.0
 40
6.0
 40
6.0
 10
-13.97669761444812
 20
-15.50042512926102
 30
0.0
 10
-13.86176806752888
 20
-15.42208617962437
 30
0.0
 10
-13.7602104913976
 20
-15.32811672990155
 30
0.0
 10
-13.66862521636142
 20
-15.22401061876456
 30
0.0
  0
SPLINE
  5
100
330
1F
100
AcDbEntity
  8
0
  6
Continuous
 62
     7
370
    15
100
AcDbSpline
210
0.0
220
0.0
230
1.0
 70
     8
 71
     3
 72
     8
 73
     4
 74
     0
 42
0.00000001
 43
0.00000001
 40
6.0
 40
6.0
 40
6.0
 40
6.0
 40
7.0
 40
7.0
 40
7.0
 40
7.0
 10
-13.66862521636142
 20
-15.22401061876456
 30
0.0
 10
-13.61494411482864
 20
-15.1629912565107
 30
0.0
 10
-13.56383886251645
 20
-15.09910295163483
 30
0.0
 10
-13.5174140790601
 20
-15.03243904749741
 30
0.0
  0
SPLINE
  5
101
330
1F
100
AcDbEntity
  8
0
  6
Continuous
 62
     7
370
    15
100
AcDbSpline
210
0.0
220
0.0
230
1.0
 70
     8
 71
     3
 72
    20
 73
    16
 74
     0
 42
0.00000001
 43
0.00000001
 40
7.0
 40
7.0
 40
7.0
 40
7.0
 40
8.0
 40
8.0
 40
8.0
 40
9.0
 40
9.0
 40
9.0
 40
10.0
 40
10.0
 40
10.0
 40
11.0
 40
11.0
 40
11.0
 40
12.0
 40
12.0
 40
12.0
 40
12.0
 10
-13.5174140790601
 20
-15.03243904749741
 30
0.0
 10
-13.44076777944378
 20
-14.92237724994207
 30
0.0
 10
-13.41950781967094
 20
-14.80291722483395
 30
0.0
 10
-13.47422460497748
 20
-14.67576029148766
 30
0.0
 10
-13.48397221696583
 20
-14.65310801930069
 30
0.0
 10
-13.49450089674229
 20
-14.630718082334
 30
0.0
 10
-13.50598794918866
 20
-14.60890079382016
 30
0.0
 10
-13.57053393285584
 20
-14.48630972838461
 30
0.0
 10
-13.66637832529392
 20
-14.3883267516789
 30
0.0
 10
-13.76236225774284
 20
-14.29158158393704
 30
0.0
 10
-14.10344780350763
 20
-13.94779098083951
 30
0.0
 10
-14.44652087405603
 20
-13.60597175151154
 30
0.0
 10
-14.78884125984831
 20
-13.26340648784499
 30
0.0
 10
-14.79577135119309
 20
-13.25647140868707
 30
0.0
 10
-14.80270607407867
 20
-13.2495409610699
 30
0.0
 10
-14.8104557106273
 20
-13.24179132452126
 30
0.0
  0
SPLINE
  5
105
330
1F
100
AcDbEntity
  8
0
  6
Continuous
 62
     7
370
    15
100
AcDbSpline
210
0.0
220
0.0
230
1.0
 70
     8
 71
     3
 72
    17
 73
    13
 74
     0
 42
0.00000001
 43
0.00000001
 40
0.0
 40
0.0
 40
0.0
 40
0.0
 40
1.0
 40
1.0
 40
1.0
 40
2.0
 40
2.0
 40
2.0
 40
3.0
 40
3.0
 40
3.0
 40
4.0
 40
4.0
 40
4.0
 40
4.0
 10
-15.39867017823935
 20
-14.62001174140337
 30
0.0
 10
-15.38850739018484
 20
-14.63017452945788
 30
0.0
 10
-15.38032381389198
 20
-14.63841938459805
 30
0.0
 10
-15.37207468348342
 20
-14.64659868562248
 30
0.0
 10
-15.15328425957381
 20
-14.86353791830799
 30
0.0
 10
-14.93472612524812
 20
-15.08071324081601
 30
0.0
 10
-14.71557491618718
 20
-15.29728788811163
 30
0.0
 10
-14.6241658772157
 20
-15.38762240962124
 30
0.0
 10
-14.5282742193101
 20
-15.47244349747863
 30
0.0
 10
-14.41439151936547
 20
-15.5345688479202
 30
0.0
 10
-14.30313478428787
 20
-15.5952615084126
 30
0.0
 10
-14.18922548267313
 20
-15.60949910229737
 30
0.0
 10
-14.07182138664325
 20
-15.55487684792578
 30
0.0
  0
SPLINE
  5
10D
330
1F
100
AcDbEntity
  8
0
  6
Continuous
 62
     7
370
    15
100
AcDbSpline
210
0.0
220
0.0
230
1.0
 70
     8
 71
     3
 72
    11
 73
     7
 74
     0
 42
0.00000001
 43
0.00000001
 40
16.0
 40
16.0
 40
16.0
 40
16.0
 40
17.0
 40
17.0
 40
17.0
 40
18.0
 40
18.0
 40
18.0
 40
18.0
 10
-11.45250598708186
 20
-19.1793449044019
 30
0.0
 10
-11.54257021662161
 20
-19.1190203920231
 30
0.0
 10
-11.62410979845488
 20
-19.04556154252576
 30
0.0
 10
-11.70702269150929
 20
-18.9750987061284
 30
0.0
 10
-11.76973826650718
 20
-18.92180059739118
 30
0.0
 10
-11.8286436272868
 20
-18.86401963220498
 30
0.0
 10
-11.88924531956789
 20
-18.80823331724971
 30
0.0
  0
SPLINE
  5
10E
330
1F
100
AcDbEntity
  8
0
  6
Continuous
 62
     7
370
    15
100
AcDbSpline
210
0.0
220
0.0
230
1.0
 70
     8
 71
     3
 72
     8
 73
     4
 74
     0
 42
0.00000001
 43
0.00000001
 40
15.0
 40
15.0
 40
15.0
 40
15.0
 40
16.0
 40
16.0
 40
16.0
 40
16.0
 10
-11.075766246575
 20
-19.22088412487595
 30
0.0
 10
-11.20725378931174
 20
-19.27944128879459
 30
0.0
 10
-11.3370507009049
 20
-19.25667572199457
 30
0.0
 10
-11.45250598708186
 20
-19.1793449044019
 30
0.0
  0
SPLINE
  5
10F
330
1F
100
AcDbEntity
  8
0
  6
Continuous
 62
     7
370
    15
100
AcDbSpline
210
0.0
220
0.0
230
1.0
 70
     8
 71
     3
 72
     8
 73
     4
 74
     0
 42
0.00000001
 43
0.00000001
 40
14.0
 40
14.0
 40
14.0
 40
14.0
 40
15.0
 40
15.0
 40
15.0
 40
15.0
 10
-10.90644614108082
 20
-19.11531302176175
 30
0.0
 10
-10.95745555612605
 20
-19.15731777146329
 30
0.0
 10
-11.01546524817251
 20
-19.1940309264405
 30
0.0
 10
-11.075766246575
 20
-19.22088412487595
 30
0.0
  0
SPLINE
  5
110
330
1F
100
AcDbEntity
  8
0
  6
Continuous
 62
     7
370
    15
100
AcDbSpline
210
0.0
220
0.0
230
1.0
 70
     8
 71
     3
 72
     8
 73
     4
 74
     0
 42
0.00000001
 43
0.00000001
 40
13.0
 40
13.0
 40
13.0
 40
13.0
 40
14.0
 40
14.0
 40
14.0
 40
14.0
 10
-10.61286725919653
 20
-18.85441619176823
 30
0.0
 10
-10.70752811482816
 20
-18.94478657802953
 30
0.0
 10
-10.80543841197081
 20
-19.03213791224445
 30
0.0
 10
-10.90644614108082
 20
-19.11531302176175
 30
0.0
  0
SPLINE
  5
111
330
1F
100
AcDbEntity
  8
0
  6
Continuous
 62
     7
370
    15
100
AcDbSpline
210
0.0
220
0.0
230
1.0
 70
     8
 71
     3
 72
     8
 73
     4
 74
     0
 42
0.00000001
 43
0.00000001
 40
12.0
 40
12.0
 40
12.0
 40
12.0
 40
13.0
 40
13.0
 40
13.0
 40
13.0
 10
-10.21518725398839
 20
-18.41804595745543
 30
0.0
 10
-10.33330698244812
 20
-18.57660592489141
 30
0.0
 10
-10.47031365919496
 20
-18.71832109725367
 30
0.0
 10
-10.61286725919653
 20
-18.85441619176823
 30
0.0
  0
SPLINE
  5
112
330
1F
100
AcDbEntity
  8
0
  6
Continuous
 62
     7
370
    15
100
AcDbSpline
210
0.0
220
0.0
230
1.0
 70
     8
 71
     3
 72
     8
 73
     4
 74
     0
 42
0.00000001
 43
0.00000001
 40
11.0
 40
11.0
 40
11.0
 40
11.0
 40
12.0
 40
12.0
 40
12.0
 40
12.0
 10
-10.10838297345111
 20
-18.19768104719418
 30
0.0
 10
-10.1227650951598
 20
-18.28141752320595
 30
0.0
 10
-10.16562751120857
 20
-18.35151624924327
 30
0.0
 10
-10.21518725398839
 20
-18.41804595745543
 30
0.0
  0
SPLINE
  5
113
330
1F
100
AcDbEntity
  8
0
  6
Continuous
 62
     7
370
    15
100
AcDbSpline
210
0.0
220
0.0
230
1.0
 70
     8
 71
     3
 72
    20
 73
    16
 74
     0
 42
0.00000001
 43
0.00000001
 40
6.0
 40
6.0
 40
6.0
 40
6.0
 40
7.0
 40
7.0
 40
7.0
 40
8.0
 40
8.0
 40
8.0
 40
9.0
 40
9.0
 40
9.0
 40
10.0
 40
10.0
 40
10.0
 40
11.0
 40
11.0
 40
11.0
 40
11.0
 10
-11.70917908939531
 20
-16.55304110358481
 30
0.0
 10
-11.59550100854739
 20
-16.54610792454617
 30
0.0
 10
-11.49438497263751
 20
-16.58460885426594
 30
0.0
 10
-11.40804462064549
 20
-16.65320042942918
 30
0.0
 10
-11.30061638843439
 20
-16.73854500015263
 30
0.0
 10
-11.19621136478064
 20
-16.82850697952276
 30
0.0
 10
-11.09720410501692
 20
-16.92346389749221
 30
0.0
 10
-10.91331245967175
 20
-17.09983297054461
 30
0.0
 10
-10.73241920257563
 20
-17.27943604663875
 30
0.0
 10
-10.55386380475829
 20
-17.46121737199084
 30
0.0
 10
-10.43004371841061
 20
-17.58727437377971
 30
0.0
 10
-10.30643240767061
 20
-17.71427169710513
 30
0.0
 10
-10.20214127241715
 20
-17.85771051518375
 30
0.0
 10
-10.12875035218467
 20
-17.95864983999911
 30
0.0
 10
-10.0864039372822
 20
-18.06968865514492
 30
0.0
 10
-10.10838297345111
 20
-18.19768104719418
 30
0.0
  0
SPLINE
  5
114
330
1F
100
AcDbEntity
  8
0
  6
Continuous
 62
     7
370
    15
100
AcDbSpline
210
0.0
220
0.0
230
1.0
 70
     8
 71
     3
 72
    14
 73
    10
 74
     0
 42
0.00000001
 43
0.00000001
 40
3.0
 40
3.0
 40
3.0
 40
3.0
 40
4.0
 40
4.0
 40
4.0
 40
5.0
 40
5.0
 40
5.0
 40
6.0
 40
6.0
 40
6.0
 40
6.0
 10
-12.70398060893031
 20
-17.4047503392978
 30
0.0
 10
-12.58119893777793
 20
-17.23687123677472
 30
0.0
 10
-12.43788243987898
 20
-17.08730524651131
 30
0.0
 10
-12.28801634952428
 20
-16.94432328836595
 30
0.0
 10
-12.18742094630151
 20
-16.84834897527099
 30
0.0
 10
-12.08152729793682
 20
-16.75760687817239
 30
0.0
 10
-11.97427660812243
 20
-16.66903816127602
 30
0.0
 10
-11.89798456199736
 20
-16.60603554950703
 30
0.0
 10
-11.8116008635339
 20
-16.5592883395576
 30
0.0
 10
-11.70917908939531
 20
-16.55304110358481
 30
0.0
  0
SPLINE
  5
115
330
1F
100
AcDbEntity
  8
0
  6
Continuous
 62
     7
370
    15
100
AcDbSpline
210
0.0
220
0.0
230
1.0
 70
     8
 71
     3
 72
     8
 73
     4
 74
     0
 42
0.00000001
 43
0.00000001
 40
2.0
 40
2.0
 40
2.0
 40
2.0
 40
3.0
 40
3.0
 40
3.0
 40
3.0
 10
-12.71360257553023
 20
-17.92841537927647
 30
0.0
 10
-12.83952253121485
 20
-17.75190094709788
 30
0.0
 10
-12.83182657303634
 20
-17.57955585168455
 30
0.0
 10
-12.70398060893031
 20
-17.4047503392978
 30
0.0
  0
SPLINE
  5
116
330
1F
100
AcDbEntity
  8
0
  6
Continuous
 62
     7
370
    15
100
AcDbSpline
210
0.0
220
0.0
230
1.0
 70
     8
 71
     3
 72
    11
 73
     7
 74
     0
 42
0.00000001
 43
0.00000001
 40
0.0
 40
0.0
 40
0.0
 40
0.0
 40
1.0
 40
1.0
 40
1.0
 40
2.0
 40
2.0
 40
2.0
 40
2.0
 10
-12.36011008206488
 20
-18.33736855475272
 30
0.0
 10
-12.39995107091815
 20
-18.29445744814696
 30
0.0
 10
-12.44116940874612
 20
-18.25273177846699
 30
0.0
 10
-12.47934613061102
 20
-18.20838821942698
 30
0.0
 10
-12.5587639917354
 20
-18.11614170287583
 30
0.0
 10
-12.64313973913283
 20
-18.02719046821367
 30
0.0
 10
-12.71360257553023
 20
-17.92841537927647
 30
0.0
  0
SPLINE
  5
117
330
1F
100
AcDbEntity
  8
0
  6
Continuous
 62
     7
370
    15
100
AcDbSpline
210
0.0
220
0.0
230
1.0
 70
     8
 71
     3
 72
    14
 73
    10
 74
     0
 42
0.00000001
 43
0.00000001
 40
1.0
 40
1.0
 40
1.0
 40
1.0
 40
2.0
 40
2.0
 40
2.0
 40
3.0
 40
3.0
 40
3.0
 40
4.0
 40
4.0
 40
4.0
 40
4.0
 10
-9.786470225169985
 20
-20.85674765497209
 30
0.0
 10
-9.786092338944993
 20
-20.86838232293626
 30
0.0
 10
-9.777089811235578
 20
-20.88192281055429
 30
0.0
 10
-9.76828204575398
 20
-20.89077665392881
 30
0.0
 10
-9.595717011532136
 20
-21.06424234469699
 30
0.0
 10
-9.422596192416197
 20
-21.23715225057108
 30
0.0
 10
-9.249527626580878
 20
-21.41011630984509
 30
0.0
 10
-9.243416842925024
 20
-21.41622329326238
 30
0.0
 10
-9.236683770199726
 20
-21.42170988772948
 30
0.0
 10
-9.22612005697377
 20
-21.431179132241
 30
0.0
  0
SPLINE
  5
11A
330
1F
100
AcDbEntity
  8
0
  6
Continuous
 62
     7
370
    15
100
AcDbSpline
210
0.0
220
0.0
230
1.0
 70
     8
 71
     3
 72
     8
 73
     4
 74
     0
 42
0.00000001
 43
0.00000001
 40
0.0
 40
0.0
 40
0.0
 40
0.0
 40
1.0
 40
1.0
 40
1.0
 40
1.0
 10
-9.802833815031994
 20
-20.27564343376559
 30
0.0
 10
-9.797598511341745
 20
-20.47054769552043
 30
0.0
 10
-9.792716867355505
 20
-20.66366988289056
 30
0.0
 10
-9.786470225169985
 20
-20.85674765497209
 30
0.0
  0
SPLINE
  5
11B
330
1F
100
AcDbEntity
  8
0
  6
Continuous
 62
     7
370
    15
100
AcDbSpline
210
0.0
220
0.0
230
1.0
 70
     8
 71
     3
 72
    14
 73
    10
 74
     0
 42
0.00000001
 43
0.00000001
 40
2.0
 40
2.0
 40
2.0
 40
2.0
 40
3.0
 40
3.0
 40
3.0
 40
4.0
 40
4.0
 40
4.0
 40
5.0
 40
5.0
 40
5.0
 40
5.0
 10
-9.311258583511062
 20
-18.75667179879159
 30
0.0
 10
-9.31163896364261
 20
-18.74556595777899
 30
0.0
 10
-9.318605394768944
 20
-18.73230371888038
 30
0.0
 10
-9.326670332363259
 20
-18.72419294090803
 30
0.0
 10
-9.496035090660895
 20
-18.5538638720677
 30
0.0
 10
-9.665988292152969
 20
-18.38412134630256
 30
0.0
 10
-9.835904797591171
 20
-18.2143421244835
 30
0.0
 10
-9.841212068299756
 20
-18.20903912904333
 30
0.0
 10
-9.84735479771126
 20
-18.20457159230613
 30
0.0
 10
-9.856739843186457
 20
-18.19664845111426
 30
0.0
  0
SPLINE
  5
11E
330
1F
100
AcDbEntity
  8
0
  6
Continuous
 62
     7
370
    15
100
AcDbSpline
210
0.0
220
0.0
230
1.0
 70
     8
 71
     3
 72
    11
 73
     7
 74
     0
 42
0.00000001
 43
0.00000001
 40
0.0
 40
0.0
 40
0.0
 40
0.0
 40
1.0
 40
1.0
 40
1.0
 40
2.0
 40
2.0
 40
2.0
 40
2.0
 10
-9.28395173159369
 20
-19.65990276921496
 30
0.0
 10
-9.283338349333475
 20
-19.64933086172451
 30
0.0
 10
-9.282603596953216
 20
-19.64391421539898
 30
0.0
 10
-9.282773063842907
 20
-19.63852583334794
 30
0.0
 10
-9.2920150065836
 20
-19.34456574002991
 30
0.0
 10
-9.301172631530584
 20
-19.05060303404782
 30
0.0
 10
-9.311258583511062
 20
-18.75667179879159
 30
0.0
  0
SPLINE
  5
14D
330
1F
100
AcDbEntity
  8
0
  6
Continuous
 62
     7
370
    15
100
AcDbSpline
210
0.0
220
0.0
230
1.0
 70
     8
 71
     3
 72
    16
 73
    12
 74
     0
 42
0.00000001
 43
0.00000001
 40
0.0
 40
0.0
 40
0.0
 40
0.0
 40
0.25
 40
0.25
 40
0.5
 40
0.5
 40
0.75
 40
0.75
 40
0.875
 40
0.875
 40
1.0
 40
1.0
 40
1.0
 40
1.0
 10
19.45366240086353
 20
-7.271723937274401
 30
0.0
 10
19.40453753857669
 20
-7.25258863981097
 30
0.0
 10
19.35517614651186
 20
-7.233695467720147
 30
0.0
 10
19.25357832100696
 20
-7.205094113281973
 30
0.0
 10
19.2017092676314
 20
-7.194062815237061
 30
0.0
 10
19.09666526924381
 20
-7.184730844286197
 30
0.0
 10
19.04344719457744
 20
-7.184600689797361
 30
0.0
 10
18.96523706209097
 20
-7.19662968433537
 30
0.0
 10
18.93943504247563
 20
-7.202455689993305
 30
0.0
 10
18.88879107969463
 20
-7.217238311954431
 30
0.0
 10
18.86416902174919
 20
-7.226753783562277
 30
0.0
 10
18.83962019307132
 20
-7.23641549571596
 30
0.0
  0
SPLINE
  5
14E
330
1F
100
AcDbEntity
  8
0
  6
Continuous
 62
     7
370
    15
100
AcDbSpline
210
0.0
220
0.0
230
1.0
 70
     8
 71
     3
 72
    16
 73
    12
 74
     0
 42
0.00000001
 43
0.00000001
 40
0.0
 40
0.0
 40
0.0
 40
0.0
 40
0.125
 40
0.125
 40
0.25
 40
0.25
 40
0.5
 40
0.5
 40
0.75
 40
0.75
 40
1.0
 40
1.0
 40
1.0
 40
1.0
 10
18.83962019307132
 20
-7.23641549571596
 30
0.0
 10
18.81764729323388
 20
-7.246545202181663
 30
0.0
 10
18.79567635360319
 20
-7.25668005351373
 30
0.0
 10
18.75351086686755
 20
-7.280284282079214
 30
0.0
 10
18.73327367878429
 20
-7.293654969663678
 30
0.0
 10
18.67492217679241
 20
-7.336820174653468
 30
0.0
 10
18.63967129704651
 20
-7.370338117661231
 30
0.0
 10
18.57691217653052
 20
-7.443925342268003
 30
0.0
 10
18.54874682243912
 20
-7.483415545689095
 30
0.0
 10
18.49870360390512
 20
-7.566191411026886
 30
0.0
 10
18.47829110260987
 20
-7.610145931318867
 30
0.0
 10
18.45893837488951
 20
-7.65443497623544
 30
0.0
  0
SPLINE
  5
152
330
1F
100
AcDbEntity
  8
0
  6
Continuous
 62
     7
370
    15
100
AcDbSpline
210
0.0
220
0.0
230
1.0
 70
     8
 71
     3
 72
    16
 73
    12
 74
     0
 42
0.00000001
 43
0.00000001
 40
0.0
 40
0.0
 40
0.0
 40
0.0
 40
0.25
 40
0.25
 40
0.4999999999999999
 40
0.4999999999999999
 40
0.7499999999999999
 40
0.7499999999999999
 40
0.8749999999999999
 40
0.8749999999999999
 40
0.9999999999999999
 40
0.9999999999999999
 40
0.9999999999999999
 40
0.9999999999999999
 10
20.30309421904535
 20
-8.422292119092585
 30
0.0
 10
20.3206355663676
 20
-8.377261105897565
 30
0.0
 10
20.33744960829431
 20
-8.331773930919725
 30
0.0
 10
20.36106091147976
 20
-8.237959757543637
 30
0.0
 10
20.36900023353423
 20
-8.190079061904907
 30
0.0
 10
20.37684695192526
 20
-8.09366716053275
 30
0.0
 10
20.37615337541268
 20
-8.045012907919388
 30
0.0
 10
20.36603163333782
 20
-7.973134638520941
 30
0.0
 10
20.36120211879217
 20
-7.949351920678089
 30
0.0
 10
20.34813807216732
 20
-7.902807319162857
 30
0.0
 10
20.33982263835875
 20
-7.88008115277815
 30
0.0
 10
20.33150330995445
 20
-7.857357054157522
 30
0.0
  0
SPLINE
  5
153
330
1F
100
AcDbEntity
  8
0
  6
Continuous
 62
     7
370
    15
100
AcDbSpline
210
0.0
220
0.0
230
1.0
 70
     8
 71
     3
 72
    16
 73
    12
 74
     0
 42
0.00000001
 43
0.00000001
 40
0.0
 40
0.0
 40
0.0
 40
0.0
 40
0.125
 40
0.125
 40
0.25
 40
0.25
 40
0.5
 40
0.5
 40
0.75
 40
0.75
 40
1.0
 40
1.0
 40
1.0
 40
1.0
 10
20.33150330995444
 20
-7.85735705415752
 30
0.0
 10
20.32070964785104
 20
-7.832800557104918
 30
0.0
 10
20.3098198190515
 20
-7.808232445512359
 30
0.0
 10
20.28420593278385
 20
-7.761040723157792
 30
0.0
 10
20.26947909205327
 20
-7.738527957873053
 30
0.0
 10
20.22076170330889
 20
-7.674382497823771
 30
0.0
 10
20.18237152770639
 20
-7.636345562534558
 30
0.0
 10
20.09955594624523
 20
-7.568089616529051
 30
0.0
 10
20.05428443253237
 20
-7.53881768920319
 30
0.0
 10
19.96096163045566
 20
-7.48569306211591
 30
0.0
 10
19.91193891149626
 20
-7.463664949401027
 30
0.0
 10
19.86275330995444
 20
-7.442178482728947
 30
0.0
  0
SPLINE
  5
154
330
1F
100
AcDbEntity
  8
0
  6
Continuous
 62
     7
370
    15
100
AcDbSpline
210
0.0
220
0.0
230
1.0
 70
     8
 71
     3
 72
     8
 73
     4
 74
     0
 42
0.00000001
 43
0.00000001
 40
0.0
 40
0.0
 40
0.0
 40
0.0
 40
1.0
 40
1.0
 40
1.0
 40
1.0
 10
19.86275330995444
 20
-7.442178482728947
 30
0.0
 10
19.79383112890217
 20
-7.413190448339559
 30
0.0
 10
19.72483930566331
 20
-7.384376121935667
 30
0.0
 10
19.65577279047392
 20
-7.355733677534142
 30
0.0
  0
SPLINE
  5
155
330
1F
100
AcDbEntity
  8
0
  6
Continuous
 62
     7
370
    15
100
AcDbSpline
210
0.0
220
0.0
230
1.0
 70
     8
 71
     3
 72
     8
 73
     4
 74
     0
 42
0.00000001
 43
0.00000001
 40
0.0
 40
0.0
 40
0.0
 40
0.0
 40
0.9999999999999999
 40
0.9999999999999999
 40
0.9999999999999999
 40
0.9999999999999999
 10
19.65577279047392
 20
-7.355733677534142
 30
0.0
 10
19.58843869356425
 20
-7.327643127862585
 30
0.0
 10
19.52106929872848
 20
-7.299639336941119
 30
0.0
 10
19.45366240086353
 20
-7.271723937274401
 30
0.0
  0
CIRCLE
  5
15A
330
1F
100
AcDbEntity
  8
0
  6
Continuous
 62
     7
370
    15
100
AcDbCircle
 10
16.0
 20
0.0
 30
0.0
 40
2.247900000000006
  0
CIRCLE
  5
15B
330
1F
100
AcDbEntity
  8
0
  6
Continuous
 62
     7
370
    15
100
AcDbCircle
 10
-16.0
 20
0.0
 30
0.0
 40
2.247899999999996
  0
SPLINE
  5
164
330
1F
100
AcDbEntity
  8
0
  6
Continuous
 62
     7
370
    15
100
AcDbSpline
210
0.0
220
0.0
230
1.0
 70
     8
 71
     3
 72
    16
 73
    12
 74
     0
 42
0.00000001
 43
0.00000001
 40
0.0000292305427188
 40
0.0000292305427188
 40
0.0000292305427188
 40
0.0000292305427188
 40
0.25
 40
0.25
 40
0.5
 40
0.5
 40
0.75
 40
0.75
 40
0.875
 40
0.875
 40
0.999921400362415
 40
0.999921400362415
 40
0.999921400362415
 40
0.999921400362415
 10
19.45301167078722
 20
-7.273343573393416
 30
0.0
 10
19.40388544154354
 20
-7.254207821867083
 30
0.0
 10
19.35460884323976
 20
-7.235348979434963
 30
0.0
 10
19.25319376327525
 20
-7.206799070565664
 30
0.0
 10
19.20137790231627
 20
-7.195785623130807
 30
0.0
 10
19.09668775316292
 20
-7.186485090851787
 30
0.0
 10
19.04354207579518
 20
-7.18635199302566
 30
0.0
 10
18.9655876120901
 20
-7.19834166550145
 30
0.0
 10
18.93984824208173
 20
-7.204153288194892
 30
0.0
 10
18.88937185989699
 20
-7.218886994215743
 30
0.0
 10
18.86485017445199
 20
-7.228361609101509
 30
0.0
 10
18.84030571008358
 20
-7.23802138270801
 30
0.0
  0
SPLINE
  5
166
330
1F
100
AcDbEntity
  8
0
  6
Continuous
 62
     7
370
    15
100
AcDbSpline
210
0.0
220
0.0
230
1.0
 70
     8
 71
     3
 72
    16
 73
    12
 74
     0
 42
0.00000001
 43
0.00000001
 40
0.0000857362638171
 40
0.0000857362638171
 40
0.0000857362638171
 40
0.0000857362638171
 40
0.125
 40
0.125
 40
0.25
 40
0.25
 40
0.5
 40
0.5
 40
0.75
 40
0.75
 40
0.9999740264664723
 40
0.9999740264664723
 40
0.9999740264664723
 40
0.9999740264664723
 10
18.84030571008357
 20
-7.238021382708012
 30
0.0
 10
18.81834452875835
 20
-7.248145698206986
 30
0.0
 10
18.79643941955571
 20
-7.25825313270972
 30
0.0
 10
18.75443852260135
 20
-7.281765224515652
 30
0.0
 10
18.73425992658811
 20
-7.295096422733226
 30
0.0
 10
18.67606365375146
 20
-7.338146797534503
 30
0.0
 10
18.64092736715602
 20
-7.37155504093527
 30
0.0
 10
18.57831210208973
 20
-7.444973590607264
 30
0.0
 10
18.55019066381816
 20
-7.484400894625786
 30
0.0
 10
18.50024961696807
 20
-7.567007758785085
 30
0.0
 10
18.47989727010469
 20
-7.610829763962341
 30
0.0
 10
18.46054375508046
 20
-7.655120038373714
 30
0.0
  0
SPLINE
  5
168
330
1F
100
AcDbEntity
  8
0
  6
Continuous
 62
     7
370
    15
100
AcDbSpline
210
0.0
220
0.0
230
1.0
 70
     8
 71
     3
 72
    11
 73
     7
 74
     0
 42
0.00000001
 43
0.00000001
 40
-0.0000168146810222
 40
-0.0000168146810222
 40
-0.0000168146810222
 40
-0.0000168146810222
 40
0.0
 40
0.0
 40
0.0
 40
0.9999155172295174
 40
0.9999155172295174
 40
0.9999155172295174
 40
0.9999155172295174
 10
19.65510418292672
 20
-7.357345913977944
 30
0.0
 10
19.65510305071766
 20
-7.357345441641098
 30
0.0
 10
19.6551019185086
 20
-7.357344969304253
 30
0.0
 10
19.65510078629954
 20
-7.357344496967407
 30
0.0
 10
19.58777191997464
 20
-7.329256129399888
 30
0.0
 10
19.52041328495848
 20
-7.301256802466066
 30
0.0
 10
19.45301167079142
 20
-7.273343573394889
 30
0.0
  0
SPLINE
  5
169
330
1F
100
AcDbEntity
  8
0
  6
Continuous
 62
     7
370
    15
100
AcDbSpline
210
0.0
220
0.0
230
1.0
 70
     8
 71
     3
 72
     8
 73
     4
 74
     0
 42
0.00000001
 43
0.00000001
 40
0.0000534213303929
 40
0.0000534213303929
 40
0.0000534213303929
 40
0.0000534213303929
 40
1.0
 40
1.0
 40
1.0
 40
1.0
 10
19.86206559106394
 20
-7.443782700663037
 30
0.0
 10
19.79314624013747
 20
-7.41479587828308
 30
0.0
 10
19.72416785265128
 20
-7.385987174141252
 30
0.0
 10
19.65510418420659
 20
-7.357345910307902
 30
0.0
  0
SPLINE
  5
16B
330
1F
100
AcDbEntity
  8
0
  6
Continuous
 62
     7
370
    15
100
AcDbSpline
210
0.0
220
0.0
230
1.0
 70
     8
 71
     3
 72
    16
 73
    12
 74
     0
 42
0.00000001
 43
0.00000001
 40
0.000085675216916
 40
0.000085675216916
 40
0.000085675216916
 40
0.000085675216916
 40
0.125
 40
0.125
 40
0.25
 40
0.25
 40
0.5
 40
0.5
 40
0.75
 40
0.75
 40
0.999981393341551
 40
0.999981393341551
 40
0.999981393341551
 40
0.999981393341551
 10
20.32988328242095
 20
-7.858008883694822
 30
0.0
 10
20.31909466016438
 20
-7.833464142142126
 30
0.0
 10
20.30823711287399
 20
-7.808975278528574
 30
0.0
 10
20.28271190861583
 20
-7.761946945178416
 30
0.0
 10
20.26804481940666
 20
-7.739525234657783
 30
0.0
 10
20.21946041526579
 20
-7.675554874892129
 30
0.0
 10
20.18114799291707
 20
-7.637598922127422
 30
0.0
 10
20.09855931768362
 20
-7.56952998857188
 30
0.0
 10
20.05334611656343
 20
-7.540291904506347
 30
0.0
 10
19.96017648656865
 20
-7.487254471536761
 30
0.0
 10
19.91125925307703
 20
-7.465272779648068
 30
0.0
 10
19.86206559106101
 20
-7.443782700661759
 30
0.0
  0
SPLINE
  5
170
330
1F
100
AcDbEntity
  8
0
  6
Continuous
 62
     7
370
    15
100
AcDbSpline
210
0.0
220
0.0
230
1.0
 70
     8
 71
     3
 72
    16
 73
    12
 74
     0
 42
0.00000001
 43
0.00000001
 40
0.0000349954556577
 40
0.0000349954556577
 40
0.0000349954556577
 40
0.0000349954556577
 40
0.25
 40
0.25
 40
0.4999999999999999
 40
0.4999999999999999
 40
0.7499999999999999
 40
0.7499999999999999
 40
0.8749999999999999
 40
0.8749999999999999
 40
0.999905015869454
 40
0.999905015869454
 40
0.999905015869454
 40
0.999905015869454
 10
20.30147524424527
 20
-8.421639691908029
 30
0.0
 10
20.31901567637651
 20
-8.376610378212774
 30
0.0
 10
20.33578355629907
 20
-8.331242497502192
 30
0.0
 10
20.35934343420853
 20
-8.237632651043114
 30
0.0
 10
20.36726936493067
 20
-8.189829930551156
 30
0.0
 10
20.37509857769373
 20
-8.093633122812506
 30
0.0
 10
20.37440519671533
 20
-8.04511527471415
 30
0.0
 10
20.36431324009768
 20
-7.973448522180466
 30
0.0
 10
20.35949854437269
 20
-7.949741144250232
 30
0.0
 10
20.34648572014002
 20
-7.903379036784222
 30
0.0
 10
20.33819735544722
 20
-7.880718656000802
 30
0.0
 10
20.32988328242096
 20
-7.858008883694827
 30
0.0
  0
SPLINE
  5
1A2
330
1F
100
AcDbEntity
  8
0
  6
Continuous
 62
     7
370
    15
100
AcDbSpline
210
0.0
220
0.0
230
1.0
 70
     8
 71
     3
 72
    18
 73
    14
 74
     0
 42
0.00000001
 43
0.00000001
 40
0.0000487022017793
 40
0.0000487022017793
 40
0.0000487022017793
 40
0.0000487022017793
 40
0.125
 40
0.125
 40
0.25
 40
0.25
 40
0.5
 40
0.5
 40
0.75
 40
0.75
 40
0.875
 40
0.875
 40
0.9999799705994756
 40
0.9999799705994756
 40
0.9999799705994756
 40
0.9999799705994756
 10
16.94789462822292
 20
-11.76684020657117
 30
0.0
 10
16.91361299793098
 20
-11.74245239900993
 30
0.0
 10
16.87847248401305
 20
-11.71928838593495
 30
0.0
 10
16.80275372526314
 20
-11.6829398918422
 30
0.0
 10
16.76312446357514
 20
-11.66839388643742
 30
0.0
 10
16.64112413555652
 20
-11.63696110052073
 30
0.0
 10
16.55523355647059
 20
-11.634173945239
 30
0.0
 10
16.39018882257678
 20
-11.66538957477957
 30
0.0
 10
16.31166564531515
 20
-11.69982810164922
 30
0.0
 10
16.2070150169389
 20
-11.77004892944769
 30
0.0
 10
16.17460825209289
 20
-11.79704478804111
 30
0.0
 10
16.11459719365735
 20
-11.85589924985567
 30
0.0
 10
16.08799538990368
 20
-11.8884635203209
 30
0.0
 10
16.06193723170255
 20
-11.92154314238649
 30
0.0
  0
SPLINE
  5
1A5
330
1F
100
AcDbEntity
  8
0
  6
Continuous
 62
     7
370
    15
100
AcDbSpline
210
0.0
220
0.0
230
1.0
 70
     8
 71
     3
 72
    18
 73
    14
 74
     0
 42
0.00000001
 43
0.00000001
 40
0.000017015146089
 40
0.000017015146089
 40
0.000017015146089
 40
0.000017015146089
 40
0.125
 40
0.125
 40
0.25
 40
0.25
 40
0.5
 40
0.5
 40
0.75
 40
0.75
 40
0.875
 40
0.875
 40
0.9999519912078022
 40
0.9999519912078022
 40
0.9999519912078022
 40
0.9999519912078022
 10
17.03439079572293
 20
-12.67634451089521
 30
0.0
 10
17.05936812157352
 20
-12.641645492144
 30
0.0
 10
17.0837494164407
 20
-12.60657939199677
 30
0.0
 10
17.12452282501821
 20
-12.53160196907234
 30
0.0
 10
17.14182012752499
 20
-12.49242991011152
 30
0.0
 10
17.18278083418247
 20
-12.37118244009721
 30
0.0
 10
17.19614426046502
 20
-12.28510114041391
 30
0.0
 10
17.18310304830563
 20
-12.11504261694863
 30
0.0
 10
17.15810580835601
 20
-12.03142451292117
 30
0.0
 10
17.09503440709999
 20
-11.92011989422215
 30
0.0
 10
17.07036684346593
 20
-11.88501851502576
 30
0.0
 10
17.01394194830243
 20
-11.8211312186046
 30
0.0
 10
16.98122524463048
 20
-11.79350360989597
 30
0.0
 10
16.94789462821251
 20
-11.76684020656377
 30
0.0
  0
SPLINE
  5
1AE
330
1F
100
AcDbEntity
  8
0
  6
Continuous
 62
     7
370
    15
100
AcDbSpline
210
0.0
220
0.0
230
1.0
 70
     8
 71
     3
 72
    17
 73
    13
 74
     0
 42
0.00000001
 43
0.00000001
 40
5.0
 40
5.0
 40
5.0
 40
5.0
 40
6.0
 40
6.0
 40
6.0
 40
7.0
 40
7.0
 40
7.0
 40
8.0
 40
8.0
 40
8.0
 40
9.0
 40
9.0
 40
9.0
 40
9.0
 10
-16.35929199560598
 20
-12.50222178557121
 30
0.0
 10
-16.32214038810124
 20
-12.44576686613866
 30
0.0
 10
-16.32264878877038
 20
-12.39725028885236
 30
0.0
 10
-16.36664023195334
 20
-12.34576643777044
 30
0.0
 10
-16.41772600804274
 20
-12.28598025293969
 30
0.0
 10
-16.47285155651283
 20
-12.22947664295018
 30
0.0
 10
-16.52833159598909
 20
-12.17364389382962
 30
0.0
 10
-16.71183929847902
 20
-11.98896928057705
 30
0.0
 10
-16.89628185966256
 20
-11.80522525074966
 30
0.0
 10
-17.08044225313067
 20
-11.62120047829632
 30
0.0
 10
-17.08727258821241
 20
-11.6143751310277
 30
0.0
 10
-17.09490026085375
 20
-11.60834854640816
 30
0.0
 10
-17.1025850558314
 20
-11.60157153342414
 30
0.0
  0
SPLINE
  5
1AF
330
1F
100
AcDbEntity
  8
0
  6
Continuous
 62
     7
370
    15
100
AcDbSpline
210
0.0
220
0.0
230
1.0
 70
     8
 71
     3
 72
     8
 73
     4
 74
     0
 42
0.00000001
 43
0.00000001
 40
4.0
 40
4.0
 40
4.0
 40
4.0
 40
5.0
 40
5.0
 40
5.0
 40
5.0
 10
-16.52486114685244
 20
-12.66446667810937
 30
0.0
 10
-16.45820092419612
 20
-12.62252605743405
 30
0.0
 10
-16.4026034335959
 20
-12.56803538632371
 30
0.0
 10
-16.35929199560598
 20
-12.50222178557121
 30
0.0
  0
SPLINE
  5
1B0
330
1F
100
AcDbEntity
  8
0
  6
Continuous
 62
     7
370
    15
100
AcDbSpline
210
0.0
220
0.0
230
1.0
 70
     8
 71
     3
 72
    17
 73
    13
 74
     0
 42
0.00000001
 43
0.00000001
 40
0.0
 40
0.0
 40
0.0
 40
0.0
 40
1.0
 40
1.0
 40
1.0
 40
2.0
 40
2.0
 40
2.0
 40
3.0
 40
3.0
 40
3.0
 40
4.0
 40
4.0
 40
4.0
 40
4.0
 10
-17.42297735240339
 20
-11.92196382999613
 30
0.0
 10
-17.41489163225427
 20
-11.93004955014525
 30
0.0
 10
-17.40793600805646
 20
-11.93700517434307
 30
0.0
 10
-17.40098062137352
 20
-11.943960561026
 30
0.0
 10
-17.20781318741269
 20
-12.13712775747192
 30
0.0
 10
-17.01489704422871
 20
-12.33054719475441
 30
0.0
 10
-16.82128616992719
 20
-12.52326952577018
 30
0.0
 10
-16.77781904091244
 20
-12.56653714225883
 30
0.0
 10
-16.73258266331828
 20
-12.60809726404514
 30
0.0
 10
-16.68696875577146
 20
-12.64911929579831
 30
0.0
 10
-16.63805350970533
 20
-12.6931103827089
 30
0.0
 10
-16.57999465207207
 20
-12.69915584976395
 30
0.0
 10
-16.52486114685244
 20
-12.66446667810937
 30
0.0
  0
SPLINE
  5
1CB
330
1F
100
AcDbEntity
  8
0
  6
Continuous
 62
     7
370
    15
100
AcDbSpline
210
0.0
220
0.0
230
1.0
 70
     8
 71
     3
 72
    14
 73
    10
 74
     0
 42
0.00000001
 43
0.00000001
 40
8.0
 40
8.0
 40
8.0
 40
8.0
 40
9.0
 40
9.0
 40
9.0
 40
10.0
 40
10.0
 40
10.0
 40
11.0
 40
11.0
 40
11.0
 40
11.0
 10
-14.06439322652798
 20
-14.6547051883264
 30
0.0
 10
-14.10767117491532
 20
-14.60265225151532
 30
0.0
 10
-14.15184443576341
 20
-14.55100629650599
 30
0.0
 10
-14.19939634623466
 20
-14.50290715167753
 30
0.0
 10
-14.37025768599277
 20
-14.33007966347787
 30
0.0
 10
-14.54270788175471
 20
-14.1588239302084
 30
0.0
 10
-14.71455799609147
 20
-13.98697381587164
 30
0.0
 10
-14.72220312607882
 20
-13.9793286858843
 30
0.0
 10
-14.72984813730872
 20
-13.97168343713947
 30
0.0
 10
-14.74038382377508
 20
-13.96114775067311
 30
0.0
  0
SPLINE
  5
1CC
330
1F
100
AcDbEntity
  8
0
  6
Continuous
 62
     7
370
    15
100
AcDbSpline
210
0.0
220
0.0
230
1.0
 70
     8
 71
     3
 72
     8
 73
     4
 74
     0
 42
0.00000001
 43
0.00000001
 40
7.0
 40
7.0
 40
7.0
 40
7.0
 40
8.0
 40
8.0
 40
8.0
 40
8.0
 10
-14.05493146373622
 20
-14.8009325502293
 30
0.0
 10
-14.02546880772013
 20
-14.75198322077333
 30
0.0
 10
-14.02678285897076
 20
-14.69994192219296
 30
0.0
 10
-14.06439322652798
 20
-14.6547051883264
 30
0.0
  0
SPLINE
  5
1CD
330
1F
100
AcDbEntity
  8
0
  6
Continuous
 62
     7
370
    15
100
AcDbSpline
210
0.0
220
0.0
230
1.0
 70
     8
 71
     3
 72
    11
 73
     7
 74
     0
 42
0.00000001
 43
0.00000001
 40
5.0
 40
5.0
 40
5.0
 40
5.0
 40
6.0
 40
6.0
 40
6.0
 40
7.0
 40
7.0
 40
7.0
 40
7.0
 10
-14.37399925840146
 20
-14.97717122759504
 30
0.0
 10
-14.33058177000335
 20
-15.00651880763628
 30
0.0
 10
-14.28106893641862
 20
-15.00987109310419
 30
0.0
 10
-14.23603812798079
 20
-14.98192710743537
 30
0.0
 10
-14.16200615500082
 20
-14.93598649812714
 30
0.0
 10
-14.09999457420211
 20
-14.87580188203148
 30
0.0
 10
-14.05493146373622
 20
-14.8009325502293
 30
0.0
  0
SPLINE
  5
1CE
330
1F
100
AcDbEntity
  8
0
  6
Continuous
 62
     7
370
    15
100
AcDbSpline
210
0.0
220
0.0
230
1.0
 70
     8
 71
     3
 72
    14
 73
    10
 74
     0
 42
0.00000001
 43
0.00000001
 40
2.0
 40
2.0
 40
2.0
 40
2.0
 40
3.0
 40
3.0
 40
3.0
 40
4.0
 40
4.0
 40
4.0
 40
5.0
 40
5.0
 40
5.0
 40
5.0
 10
-15.05343180299574
 20
-14.27323806976859
 30
0.0
 10
-15.07269212472448
 20
-14.29208701566975
 30
0.0
 10
-15.06884141421373
 20
-14.3019798680268
 30
0.0
 10
-15.05207784923991
 20
-14.31866030278143
 30
0.0
 10
-14.85964932417029
 20
-14.51013473044958
 30
0.0
 10
-14.66825909553845
 20
-14.70265505503271
 30
0.0
 10
-14.47551930717665
 20
-14.89381536922973
 30
0.0
 10
-14.44453061785097
 20
-14.92455015511448
 30
0.0
 10
-14.41014689037318
 20
-14.95273735605318
 30
0.0
 10
-14.37399925840146
 20
-14.97717122759504
 30
0.0
  0
SPLINE
  5
1CF
330
1F
100
AcDbEntity
  8
0
  6
Continuous
 62
     7
370
    15
100
AcDbSpline
210
0.0
220
0.0
230
1.0
 70
     8
 71
     3
 72
    11
 73
     7
 74
     0
 42
0.00000001
 43
0.00000001
 40
0.0
 40
0.0
 40
0.0
 40
0.0
 40
1.0
 40
1.0
 40
1.0
 40
2.0
 40
2.0
 40
2.0
 40
2.0
 10
-14.74038382377508
 20
-13.96114775067311
 30
0.0
 10
-14.7503063654961
 20
-13.97107029239413
 30
0.0
 10
-14.75669480408408
 20
-13.97745873098212
 30
0.0
 10
-14.76308324267206
 20
-13.9838471695701
 30
0.0
 10
-14.85970775283863
 20
-14.08047262979632
 30
0.0
 10
-14.95577683438348
 20
-14.17766563190472
 30
0.0
 10
-15.05343180299574
 20
-14.27323806976859
 30
0.0
  0
SPLINE
  5
1E1
330
1F
100
AcDbEntity
  8
0
  6
Continuous
 62
     7
370
    15
100
AcDbSpline
210
0.0
220
0.0
230
1.0
 70
     8
 71
     3
 72
    20
 73
    16
 74
     0
 42
0.00000001
 43
0.00000001
 40
0.0000346544410261
 40
0.0000346544410261
 40
0.0000346544410261
 40
0.0000346544410261
 40
0.0625
 40
0.0625
 40
0.125
 40
0.125
 40
0.25
 40
0.25
 40
0.5
 40
0.5
 40
0.75
 40
0.75
 40
0.875
 40
0.875
 40
0.9999837115645658
 40
0.9999837115645658
 40
0.9999837115645658
 40
0.9999837115645658
 10
12.68650484152525
 20
-16.2362565414989
 30
0.0
 10
12.67374737248151
 20
-16.21924054125756
 30
0.0
 10
12.66101506123889
 20
-16.20226394428295
 30
0.0
 10
12.63333053463152
 20
-16.17025307397846
 30
0.0
 10
12.61837757586386
 20
-16.15515077044548
 30
0.0
 10
12.5718819405786
 20
-16.11163756274575
 30
0.0
 10
12.53826130005423
 20
-16.08551466841659
 30
0.0
 10
12.42981661898004
 20
-16.01899742228629
 30
0.0
 10
12.34810133164033
 20
-15.98994490768006
 30
0.0
 10
12.17966553742163
 20
-15.97011895806656
 30
0.0
 10
12.09355351065043
 20
-15.97891596034281
 30
0.0
 10
11.97150638881339
 20
-16.01494624684883
 30
0.0
 10
11.93217850183982
 20
-16.03130398988989
 30
0.0
 10
11.8566549840591
 20
-16.07004787922066
 30
0.0
 10
11.8212951666827
 20
-16.09353864673923
 30
0.0
 10
11.78633249287971
 20
-16.11775094855624
 30
0.0
  0
SPLINE
  5
1ED
330
1F
100
AcDbEntity
  8
0
  6
Continuous
 62
     7
370
    15
100
AcDbSpline
210
0.0
220
0.0
230
1.0
 70
     8
 71
     3
 72
    18
 73
    14
 74
     0
 42
0.00000001
 43
0.00000001
 40
0.0000174889499773
 40
0.0000174889499773
 40
0.0000174889499773
 40
0.0000174889499773
 40
0.125
 40
0.125
 40
0.25
 40
0.25
 40
0.5
 40
0.5
 40
0.75
 40
0.75
 40
0.875
 40
0.875
 40
0.999965469347286
 40
0.999965469347286
 40
0.999965469347286
 40
0.999965469347286
 10
12.51075079997932
 20
-17.13074822341574
 30
0.0
 10
12.54487835228607
 20
-17.1050577504102
 30
0.0
 10
12.5783441149425
 20
-17.07873115219033
 30
0.0
 10
12.63927321617905
 20
-17.01911905476056
 30
0.0
 10
12.6676869767538
 20
-16.98718165033556
 30
0.0
 10
12.74092333390822
 20
-16.88248570936353
 30
0.0
 10
12.77780348626261
 20
-16.80367706879635
 30
0.0
 10
12.8121129203242
 20
-16.63685522402493
 30
0.0
 10
12.8117314982832
 20
-16.54980885062452
 30
0.0
 10
12.78277942055086
 20
-16.42535036646822
 30
0.0
 10
12.76904809581359
 20
-16.38485777078179
 30
0.0
 10
12.73345184224956
 20
-16.30746240375232
 30
0.0
 10
12.7106982644704
 20
-16.27140926116876
 30
0.0
 10
12.68650484152525
 20
-16.2362565414989
 30
0.0
  0
SPLINE
  5
202
330
1F
100
AcDbEntity
  8
0
  6
Continuous
 62
     7
370
    15
100
AcDbSpline
210
0.0
220
0.0
230
1.0
 70
     8
 71
     3
 72
    17
 73
    13
 74
     0
 42
0.00000001
 43
0.00000001
 40
10.0
 40
10.0
 40
10.0
 40
10.0
 40
11.0
 40
11.0
 40
11.0
 40
12.0
 40
12.0
 40
12.0
 40
13.0
 40
13.0
 40
13.0
 40
14.0
 40
14.0
 40
14.0
 40
14.0
 10
-11.15273010362865
 20
-18.57897014832543
 30
0.0
 10
-11.00795051387185
 20
-18.47099396921233
 30
0.0
 10
-10.88450962008119
 20
-18.34023761613217
 30
0.0
 10
-10.77553849100175
 20
-18.19661021121344
 30
0.0
 10
-10.71430417775253
 20
-18.11590157529978
 30
0.0
 10
-10.70907113045397
 20
-18.0298678550592
 30
0.0
 10
-10.77064330866549
 20
-17.94487053113706
 30
0.0
 10
-10.78352801761148
 20
-17.92708351440743
 30
0.0
 10
-10.7968860937771
 20
-17.90941264246976
 30
0.0
 10
-10.81185986513157
 20
-17.89340116846477
 30
0.0
 10
-10.91201491570752
 20
-17.78630450707085
 30
0.0
 10
-11.01266625369207
 20
-17.67967183105746
 30
0.0
 10
-11.1131563190514
 20
-17.5728892831346
 30
0.0
  0
SPLINE
  5
203
330
1F
100
AcDbEntity
  8
0
  6
Continuous
 62
     7
370
    15
100
AcDbSpline
210
0.0
220
0.0
230
1.0
 70
     8
 71
     3
 72
    11
 73
     7
 74
     0
 42
0.00000001
 43
0.00000001
 40
8.0
 40
8.0
 40
8.0
 40
8.0
 40
9.0
 40
9.0
 40
9.0
 40
10.0
 40
10.0
 40
10.0
 40
10.0
 10
-11.58892885217499
 20
-18.42404748425178
 30
0.0
 10
-11.53219865295946
 20
-18.47845146241922
 30
0.0
 10
-11.47313938251685
 20
-18.53133962041831
 30
0.0
 10
-11.40995542811251
 20
-18.57788755535653
 30
0.0
 10
-11.31723744446103
 20
-18.64619328132319
 30
0.0
 10
-11.24444221162785
 20
-18.64736779256297
 30
0.0
 10
-11.15273010362865
 20
-18.57897014832543
 30
0.0
  0
SPLINE
  5
204
330
1F
100
AcDbEntity
  8
0
  6
Continuous
 62
     7
370
    15
100
AcDbSpline
210
0.0
220
0.0
230
1.0
 70
     8
 71
     3
 72
    17
 73
    13
 74
     0
 42
0.00000001
 43
0.00000001
 40
4.0
 40
4.0
 40
4.0
 40
4.0
 40
5.0
 40
5.0
 40
5.0
 40
6.0
 40
6.0
 40
6.0
 40
7.0
 40
7.0
 40
7.0
 40
8.0
 40
8.0
 40
8.0
 40
8.0
 10
-11.7302052157373
 20
-17.21661537129236
 30
0.0
 10
-11.88216654388818
 20
-17.32136063505751
 30
0.0
 10
-12.01224431686476
 20
-17.45083797033659
 30
0.0
 10
-12.12581088446152
 20
-17.595499990212
 30
0.0
 10
-12.19801755534279
 20
-17.68747740236785
 30
0.0
 10
-12.1974791090373
 20
-17.77176408167328
 30
0.0
 10
-12.12453756701832
 20
-17.8644312371336
 30
0.0
 10
-12.05783269155854
 20
-17.94917537015954
 30
0.0
 10
-11.98408051114491
 20
-18.0288084197942
 30
0.0
 10
-11.90906380133982
 20
-18.1064738958979
 30
0.0
 10
-11.80465533371985
 20
-18.21456906998192
 30
0.0
 10
-11.69740856290151
 20
-18.32001785291642
 30
0.0
 10
-11.58892885217499
 20
-18.42404748425178
 30
0.0
  0
SPLINE
  5
205
330
1F
100
AcDbEntity
  8
0
  6
Continuous
 62
     7
370
    15
100
AcDbSpline
210
0.0
220
0.0
230
1.0
 70
     8
 71
     3
 72
    14
 73
    10
 74
     0
 42
0.00000001
 43
0.00000001
 40
1.0
 40
1.0
 40
1.0
 40
1.0
 40
2.0
 40
2.0
 40
2.0
 40
3.0
 40
3.0
 40
3.0
 40
4.0
 40
4.0
 40
4.0
 40
4.0
 10
-11.11679065347731
 20
-17.57638870909051
 30
0.0
 10
-11.1705982317007
 20
-17.52258113086711
 30
0.0
 10
-11.22318177682515
 20
-17.46747541489216
 30
0.0
 10
-11.27852987676781
 20
-17.41530146423345
 30
0.0
 10
-11.3445021374815
 20
-17.35311257855293
 30
0.0
 10
-11.41161601361974
 20
-17.29200070424087
 30
0.0
 10
-11.48048215602123
 20
-17.2330496218407
 30
0.0
 10
-11.56038965413671
 20
-17.16464710854745
 30
0.0
 10
-11.64423669334005
 20
-17.15735872595789
 30
0.0
 10
-11.7302052157373
 20
-17.21661537129236
 30
0.0
  0
LINE
  5
237
330
1F
100
AcDbEntity
  8
0
  6
Continuous
 62
     7
370
    15
100
AcDbLine
 10
8.4714305882
 20
-15.1172532076
 30
0.0
 11
8.4714305882
 21
15.1172532076
 31
0.0
  0
LINE
  5
238
330
1F
100
AcDbEntity
  8
0
  6
Continuous
 62
     7
370
    15
100
AcDbLine
 10
-8.4714305882
 20
-15.1172532076
 30
0.0
 11
-8.4714305882
 21
15.1172532076
 31
0.0
  0
LINE
  5
239
330
1F
100
AcDbEntity
  8
0
  6
Continuous
 62
     7
370
    15
100
AcDbLine
 10
16.7784919475
 20
-12.4789205575
 30
0.0
 11
16.5390438956
 21
-12.797914064
 31
0.0
  0
LINE
  5
23A
330
1F
100
AcDbEntity
  8
0
  6
Continuous
 62
     7
370
    15
100
AcDbLine
 10
16.5390438956
 20
-12.797914064
 30
0.0
 11
16.0715114281
 21
-12.4468588692
 31
0.0
  0
LINE
  5
23B
330
1F
100
AcDbEntity
  8
0
  6
Continuous
 62
     7
370
    15
100
AcDbLine
 10
16.0715114281
 20
-12.4468588692
 30
0.0
 11
16.31095948
 21
-12.1278653627
 31
0.0
  0
LINE
  5
23C
330
1F
100
AcDbEntity
  8
0
  6
Continuous
 62
     7
370
    15
100
AcDbLine
 10
16.3095764264
 20
-12.126800493
 30
0.0
 11
16.31095948
 21
-12.1278653627
 31
0.0
  0
LINE
  5
23D
330
1F
100
AcDbEntity
  8
0
  6
Continuous
 62
     7
370
    15
100
AcDbLine
 10
16.7365076971
 20
-12.0505658274
 30
0.0
 11
16.735472467
 21
-12.0519725056
 31
0.0
  0
LINE
  5
23E
330
1F
100
AcDbEntity
  8
0
  6
Continuous
 62
     7
370
    15
100
AcDbLine
 10
16.0690679186
 20
-12.4472067423
 30
0.0
 11
16.0715114281
 21
-12.4468588692
 31
0.0
  0
LINE
  5
23F
330
1F
100
AcDbEntity
  8
0
  6
Continuous
 62
     7
370
    15
100
AcDbLine
 10
16.0690679186
 20
-12.4472067423
 30
0.0
 11
16.3095764264
 21
-12.126800493
 31
0.0
  0
LINE
  5
240
330
1F
100
AcDbEntity
  8
0
  6
Continuous
 62
     7
370
    15
100
AcDbLine
 10
12.313328384
 20
-16.8805300679
 30
0.0
 11
12.0089452671
 21
-17.1000917562
 31
0.0
  0
LINE
  5
241
330
1F
100
AcDbEntity
  8
0
  6
Continuous
 62
     7
370
    15
100
AcDbLine
 10
12.0089452671
 20
-17.1000917562
 30
0.0
 11
11.6530199424
 21
-16.6065852627
 31
0.0
  0
LINE
  5
242
330
1F
100
AcDbEntity
  8
0
  6
Continuous
 62
     7
370
    15
100
AcDbLine
 10
11.6530199424
 20
-16.6065852627
 30
0.0
 11
11.9574030593
 21
-16.3870235744
 31
0.0
  0
LINE
  5
243
330
1F
100
AcDbEntity
  8
0
  6
Continuous
 62
     7
370
    15
100
AcDbLine
 10
12.3784702736
 20
-16.460282855
 30
0.0
 11
12.3770459165
 21
-16.4612930549
 31
0.0
  0
LINE
  5
244
330
1F
100
AcDbEntity
  8
0
  6
Continuous
 62
     7
370
    15
100
AcDbLine
 10
12.314358984
 20
-16.8819387305
 30
0.0
 11
12.0085506964
 21
-17.102528442
 31
0.0
  0
LINE
  5
245
330
1F
100
AcDbEntity
  8
0
  6
Continuous
 62
     7
370
    15
100
AcDbLine
 10
12.0085506964
 20
-17.102528442
 30
0.0
 11
12.0089452671
 21
-17.1000917562
 31
0.0
  0
LINE
  5
246
330
1F
100
AcDbEntity
  8
0
  6
Continuous
 62
     7
370
    15
100
AcDbLine
 10
18.9924653011
 20
-7.5740485128
 30
0.0
 11
18.993029284
 21
-7.57570121
 31
0.0
  0
LINE
  5
247
330
1F
100
AcDbEntity
  8
0
  6
Continuous
 62
     7
370
    15
100
AcDbLine
 10
18.7536011956
 20
-7.8205471691
 30
0.0
 11
18.7552046087
 21
-7.8212369243
 31
0.0
  0
LINE
  5
248
330
1F
100
AcDbEntity
  8
0
  6
Continuous
 62
     7
370
    15
100
AcDbLine
 10
19.9840302792
 20
-7.986830433
 30
0.0
 11
19.9824773359
 21
-7.9876330282
 31
0.0
  0
LINE
  5
249
330
1F
100
AcDbEntity
  8
0
  6
Continuous
 62
     7
370
    15
100
AcDbLine
 10
18.629138693
 20
-8.1188491016
 30
0.0
 11
18.6314221411
 21
-8.1179090022
 31
0.0
  0
LINE
  5
24A
330
1F
100
AcDbEntity
  8
0
  6
Continuous
 62
     7
370
    15
100
AcDbLine
 10
18.629138693
 20
-8.1188491016
 30
0.0
 11
18.7536011956
 21
-7.8205471691
 31
0.0
  0
LINE
  5
24B
330
1F
100
AcDbEntity
  8
0
  6
Continuous
 62
     7
370
    15
100
AcDbLine
 10
18.6314221411
 20
-8.1179090022
 30
0.0
 11
18.7552046087
 21
-7.8212369243
 31
0.0
  0
LINE
  5
24C
330
1F
100
AcDbEntity
  8
0
  6
Continuous
 62
     7
370
    15
100
AcDbLine
 10
19.9776005935
 20
-8.3300115641
 30
0.0
 11
19.9759838294
 21
-8.3293538074
 31
0.0
  0
LINE
  5
24D
330
1F
100
AcDbEntity
  8
0
  6
Continuous
 62
     7
370
    15
100
AcDbLine
 10
19.9776005935
 20
-8.3300115641
 30
0.0
 11
19.85314065
 21
-8.6283073629
 31
0.0
  0
LINE
  5
24E
330
1F
100
AcDbEntity
  8
0
  6
Continuous
 62
     7
370
    15
100
AcDbLine
 10
19.85314065
 20
-8.6283073629
 30
0.0
 11
19.8522013619
 21
-8.6260258853
 31
0.0
  0
LINE
  5
24F
330
1F
100
AcDbEntity
  8
0
  6
Continuous
 62
     7
370
    15
100
AcDbLine
 10
19.9759838294
 20
-8.3293538074
 30
0.0
 11
19.8522013619
 21
-8.6260258853
 31
0.0
  0
LINE
  5
250
330
1F
100
AcDbEntity
  8
0
  6
Continuous
 62
     7
370
    15
100
AcDbLine
 10
16.7799102255
 20
-12.4799385012
 30
0.0
 11
16.7784919475
 21
-12.4789205575
 31
0.0
  0
LINE
  5
251
330
1F
100
AcDbEntity
  8
0
  6
Continuous
 62
     7
370
    15
100
AcDbLine
 10
16.7799102255
 20
-12.4799385012
 30
0.0
 11
16.5393918203
 21
-12.8003579359
 31
0.0
  0
LINE
  5
252
330
1F
100
AcDbEntity
  8
0
  6
Continuous
 62
     7
370
    15
100
AcDbLine
 10
16.5393918203
 20
-12.8003579359
 30
0.0
 11
16.5390438956
 21
-12.797914064
 31
0.0
  0
LINE
  5
253
330
1F
100
AcDbEntity
  8
0
  6
Continuous
 62
     7
370
    15
100
AcDbLine
 10
11.9564113902
 20
-16.3855868296
 30
0.0
 11
11.9574030593
 21
-16.3870235744
 31
0.0
  0
LINE
  5
254
330
1F
100
AcDbEntity
  8
0
  6
Continuous
 62
     7
370
    15
100
AcDbLine
 10
11.6505834429
 20
-16.6061907222
 30
0.0
 11
11.6530199424
 21
-16.6065852627
 31
0.0
  0
LINE
  5
255
330
1F
100
AcDbEntity
  8
0
  6
Continuous
 62
     7
370
    15
100
AcDbLine
 10
11.6505834429
 20
-16.6061907222
 30
0.0
 11
11.9564113902
 21
-16.3855868296
 31
0.0
  0
LINE
  5
256
330
1F
100
AcDbEntity
  8
0
  6
Continuous
 62
     7
370
    15
100
AcDbLine
 10
18.0810439384
 20
-8.5648814046
 30
0.0
 11
17.9000374449
 21
-8.9025437423
 31
0.0
  0
LINE
  5
257
330
1F
100
AcDbEntity
  8
0
  6
Continuous
 62
     7
370
    15
100
AcDbLine
 10
17.9000374449
 20
-8.9025437423
 30
0.0
 11
18.98762146
 21
-9.483736852
 31
0.0
  0
LINE
  5
258
330
1F
100
AcDbEntity
  8
0
  6
Continuous
 62
     7
370
    15
100
AcDbLine
 10
17.5226023799
 20
-9.6062775085
 30
0.0
 11
18.9816121202
 21
-9.482495041
 31
0.0
  0
LINE
  5
259
330
1F
100
AcDbEntity
  8
0
  6
Continuous
 62
     7
370
    15
100
AcDbLine
 10
17.5226023799
 20
-9.6062775085
 30
0.0
 11
17.3570179643
 21
-9.9155307553
 31
0.0
  0
LINE
  5
25A
330
1F
100
AcDbEntity
  8
0
  6
Continuous
 62
     7
370
    15
100
AcDbLine
 10
17.3570179643
 20
-9.9155307553
 30
0.0
 11
19.1232517306
 21
-10.862771015
 31
0.0
  0
LINE
  5
25B
330
1F
100
AcDbEntity
  8
0
  6
Continuous
 62
     7
370
    15
100
AcDbLine
 10
19.1232517306
 20
-10.862771015
 30
0.0
 11
19.3042582241
 21
-10.5251086774
 31
0.0
  0
LINE
  5
25C
330
1F
100
AcDbEntity
  8
0
  6
Continuous
 62
     7
370
    15
100
AcDbLine
 10
18.21422947
 20
-9.9426932704
 30
0.0
 11
19.3042582241
 21
-10.5251086774
 31
0.0
  0
LINE
  5
25D
330
1F
100
AcDbEntity
  8
0
  6
Continuous
 62
     7
370
    15
100
AcDbLine
 10
18.2202484838
 20
-9.9439398462
 30
0.0
 11
19.6812874449
 21
-9.8213749111
 31
0.0
  0
LINE
  5
25E
330
1F
100
AcDbEntity
  8
0
  6
Continuous
 62
     7
370
    15
100
AcDbLine
 10
19.6812874449
 20
-9.8213749111
 30
0.0
 11
19.8472777046
 21
-9.5121216644
 31
0.0
  0
LINE
  5
25F
330
1F
100
AcDbEntity
  8
0
  6
Continuous
 62
     7
370
    15
100
AcDbLine
 10
18.0810439384
 20
-8.5648814046
 30
0.0
 11
19.8472777046
 21
-9.5121216644
 31
0.0
  0
LINE
  5
260
330
1F
100
AcDbEntity
  8
0
  6
Continuous
 62
     7
370
    15
100
AcDbLine
 10
18.6372644797
 20
-11.01087004
 30
0.0
 11
18.1445696745
 21
-11.7994252348
 31
0.0
  0
LINE
  5
261
330
1F
100
AcDbEntity
  8
0
  6
Continuous
 62
     7
370
    15
100
AcDbLine
 10
18.1445696745
 20
-11.7994252348
 30
0.0
 11
17.703011233
 21
-11.5234512088
 31
0.0
  0
LINE
  5
262
330
1F
100
AcDbEntity
  8
0
  6
Continuous
 62
     7
370
    15
100
AcDbLine
 10
17.703011233
 20
-11.5234512088
 30
0.0
 11
18.1226540901
 21
-10.8517791309
 31
0.0
  0
LINE
  5
263
330
1F
100
AcDbEntity
  8
0
  6
Continuous
 62
     7
370
    15
100
AcDbLine
 10
18.1226540901
 20
-10.8517791309
 30
0.0
 11
17.8369398044
 21
-10.6732077023
 31
0.0
  0
LINE
  5
264
330
1F
100
AcDbEntity
  8
0
  6
Continuous
 62
     7
370
    15
100
AcDbLine
 10
17.8369398044
 20
-10.6732077023
 30
0.0
 11
17.4172969473
 21
-11.3448797802
 31
0.0
  0
LINE
  5
265
330
1F
100
AcDbEntity
  8
0
  6
Continuous
 62
     7
370
    15
100
AcDbLine
 10
17.4172969473
 20
-11.3448797802
 30
0.0
 11
17.0017125317
 21
-11.0851395205
 31
0.0
  0
LINE
  5
266
330
1F
100
AcDbEntity
  8
0
  6
Continuous
 62
     7
370
    15
100
AcDbLine
 10
17.0017125317
 20
-11.0851395205
 30
0.0
 11
17.4944073369
 21
-10.2965843257
 31
0.0
  0
LINE
  5
267
330
1F
100
AcDbEntity
  8
0
  6
Continuous
 62
     7
370
    15
100
AcDbLine
 10
17.4944073369
 20
-10.2965843257
 30
0.0
 11
17.2086930512
 21
-10.1180128971
 31
0.0
  0
LINE
  5
268
330
1F
100
AcDbEntity
  8
0
  6
Continuous
 62
     7
370
    15
100
AcDbLine
 10
16.5211930512
 20
-11.2182564036
 30
0.0
 11
17.2086930512
 21
-10.1180128971
 31
0.0
  0
LINE
  5
269
330
1F
100
AcDbEntity
  8
0
  6
Continuous
 62
     7
370
    15
100
AcDbLine
 10
16.5211930512
 20
-11.2182564036
 30
0.0
 11
18.2354787655
 21
-12.289684975
 31
0.0
  0
LINE
  5
26A
330
1F
100
AcDbEntity
  8
0
  6
Continuous
 62
     7
370
    15
100
AcDbLine
 10
18.2354787655
 20
-12.289684975
 30
0.0
 11
18.9229787655
 21
-11.1894414685
 31
0.0
  0
LINE
  5
26B
330
1F
100
AcDbEntity
  8
0
  6
Continuous
 62
     7
370
    15
100
AcDbLine
 10
18.9229787655
 20
-11.1894414685
 30
0.0
 11
18.6372644797
 21
-11.01087004
 31
0.0
  0
LINE
  5
26C
330
1F
100
AcDbEntity
  8
0
  6
Continuous
 62
     7
370
    15
100
AcDbLine
 10
16.0605536358
 20
-11.9204789991
 30
0.0
 11
15.5970796099
 21
-12.5377679601
 31
0.0
  0
LINE
  5
26D
330
1F
100
AcDbEntity
  8
0
  6
Continuous
 62
     7
370
    15
100
AcDbLine
 10
15.5970796099
 20
-12.5377679601
 30
0.0
 11
17.1814951943
 21
-13.7272971809
 31
0.0
  0
LINE
  5
26E
330
1F
100
AcDbEntity
  8
0
  6
Continuous
 62
     7
370
    15
100
AcDbLine
 10
17.1814951943
 20
-13.7272971809
 30
0.0
 11
17.3961867527
 21
-13.4415828952
 31
0.0
  0
LINE
  5
26F
330
1F
100
AcDbEntity
  8
0
  6
Continuous
 62
     7
370
    15
100
AcDbLine
 10
17.3961867527
 20
-13.4415828952
 30
0.0
 11
16.7987841553
 21
-12.993125103
 31
0.0
  0
LINE
  5
270
330
1F
100
AcDbEntity
  8
0
  6
Continuous
 62
     7
370
    15
100
AcDbLine
 10
16.7987841553
 20
-12.993125103
 30
0.0
 11
17.0357971423
 21
-12.6773783497
 31
0.0
  0
LINE
  5
271
330
1F
100
AcDbEntity
  8
0
  6
Continuous
 62
     7
370
    15
100
AcDbLine
 10
11.7853251372
 20
-16.1163255224
 30
0.0
 11
11.1538316307
 21
-16.5716826653
 31
0.0
  0
LINE
  5
272
330
1F
100
AcDbEntity
  8
0
  6
Continuous
 62
     7
370
    15
100
AcDbLine
 10
11.1538316307
 20
-16.5716826653
 30
0.0
 11
12.3344209805
 21
-18.2056096052
 31
0.0
  0
LINE
  5
273
330
1F
100
AcDbEntity
  8
0
  6
Continuous
 62
     7
370
    15
100
AcDbLine
 10
12.3340264359
 20
-18.2080463016
 30
0.0
 11
12.6457147476
 21
-17.9832086393
 31
0.0
  0
LINE
  5
274
330
1F
100
AcDbEntity
  8
0
  6
Continuous
 62
     7
370
    15
100
AcDbLine
 10
12.6457147476
 20
-17.9832086393
 30
0.0
 11
12.196039423
 21
-17.3598320159
 31
0.0
  0
LINE
  5
275
330
1F
100
AcDbEntity
  8
0
  6
Continuous
 62
     7
370
    15
100
AcDbLine
 10
12.196039423
 20
-17.3598320159
 30
0.0
 11
12.5117861762
 21
-17.1321534445
 31
0.0
  0
LINE
  5
276
330
1F
100
AcDbEntity
  8
0
  6
Continuous
 62
     7
370
    15
100
AcDbLine
 10
-6.915979481
 20
-19.8744890604
 30
0.0
 11
-6.9938083673
 21
-19.9523179468
 31
0.0
  0
LINE
  5
277
330
1F
100
AcDbEntity
  8
0
  6
Continuous
 62
     7
370
    15
100
AcDbLine
 10
-21.5088956785
 20
-8.5503860902
 30
0.0
 11
-21.3804780116
 21
-8.4219684321
 31
0.0
  0
LINE
  5
278
330
1F
100
AcDbEntity
  8
0
  6
Continuous
 62
     7
370
    15
100
AcDbLine
 10
-20.8123271411
 20
-9.8851514957
 30
0.0
 11
-21.2442774604
 21
-9.4532011764
 31
0.0
  0
LINE
  5
279
330
1F
100
AcDbEntity
  8
0
  6
Continuous
 62
     7
370
    15
100
AcDbLine
 10
-19.3653045921
 20
-9.4999101464
 30
0.0
 11
-19.7456872176
 21
-9.119527521
 31
0.0
  0
LINE
  5
27A
330
1F
100
AcDbEntity
  8
0
  6
Continuous
 62
     7
370
    15
100
AcDbLine
 10
-21.3804780116
 20
-8.4219684321
 30
0.0
 11
-20.9974739043
 21
-8.8049725393
 31
0.0
  0
LINE
  5
27B
330
1F
100
AcDbEntity
  8
0
  6
Continuous
 62
     7
370
    15
100
AcDbLine
 10
22.225
 20
10.8467449034
 30
0.0
 11
22.225
 21
1.0103629711
 31
0.0
  0
LINE
  5
27C
330
1F
100
AcDbEntity
  8
0
  6
Continuous
 62
     7
370
    15
100
AcDbLine
 10
22.1
 20
0.7938566201
 30
0.0
 11
21.1
 21
0.2165063509
 31
0.0
  0
LINE
  5
27D
330
1F
100
AcDbEntity
  8
0
  6
Continuous
 62
     7
370
    15
100
AcDbLine
 10
21.1
 20
-0.2165063509
 30
0.0
 11
22.1
 21
-0.7938566201
 31
0.0
  0
LINE
  5
27E
330
1F
100
AcDbEntity
  8
0
  6
Continuous
 62
     7
370
    15
100
AcDbLine
 10
22.225
 20
-1.0103629711
 30
0.0
 11
22.225
 21
-10.8467449034
 31
0.0
  0
LINE
  5
27F
330
1F
100
AcDbEntity
  8
0
  6
Continuous
 62
     7
370
    15
100
AcDbLine
 10
10.8467449034
 20
-22.225
 30
0.0
 11
1.0103629711
 21
-22.225
 31
0.0
  0
LINE
  5
280
330
1F
100
AcDbEntity
  8
0
  6
Continuous
 62
     7
370
    15
100
AcDbLine
 10
0.7938566201
 20
-22.1
 30
0.0
 11
0.2165063509
 21
-21.1
 31
0.0
  0
LINE
  5
281
330
1F
100
AcDbEntity
  8
0
  6
Continuous
 62
     7
370
    15
100
AcDbLine
 10
-0.2165063509
 20
-21.1
 30
0.0
 11
-0.7938566201
 21
-22.1
 31
0.0
  0
LINE
  5
282
330
1F
100
AcDbEntity
  8
0
  6
Continuous
 62
     7
370
    15
100
AcDbLine
 10
-1.0103629711
 20
-22.225
 30
0.0
 11
-10.8467449034
 21
-22.225
 31
0.0
  0
LINE
  5
283
330
1F
100
AcDbEntity
  8
0
  6
Continuous
 62
     7
370
    15
100
AcDbLine
 10
-22.225
 20
-10.8467449034
 30
0.0
 11
-22.225
 21
-1.0103629711
 31
0.0
  0
LINE
  5
284
330
1F
100
AcDbEntity
  8
0
  6
Continuous
 62
     7
370
    15
100
AcDbLine
 10
-22.1
 20
-0.7938566201
 30
0.0
 11
-21.1
 21
-0.2165063509
 31
0.0
  0
LINE
  5
285
330
1F
100
AcDbEntity
  8
0
  6
Continuous
 62
     7
370
    15
100
AcDbLine
 10
-21.1
 20
0.2165063509
 30
0.0
 11
-22.1
 21
0.7938566201
 31
0.0
  0
LINE
  5
286
330
1F
100
AcDbEntity
  8
0
  6
Continuous
 62
     7
370
    15
100
AcDbLine
 10
-22.225
 20
1.0103629711
 30
0.0
 11
-22.225
 21
10.8467449034
 31
0.0
  0
LINE
  5
287
330
1F
100
AcDbEntity
  8
0
  6
Continuous
 62
     7
370
    15
100
AcDbLine
 10
-10.8467449034
 20
22.225
 30
0.0
 11
-1.0103629711
 21
22.225
 31
0.0
  0
LINE
  5
288
330
1F
100
AcDbEntity
  8
0
  6
Continuous
 62
     7
370
    15
100
AcDbLine
 10
-0.7938566201
 20
22.1
 30
0.0
 11
-0.2165063509
 21
21.1
 31
0.0
  0
LINE
  5
289
330
1F
100
AcDbEntity
  8
0
  6
Continuous
 62
     7
370
    15
100
AcDbLine
 10
0.2165063509
 20
21.1
 30
0.0
 11
0.7938566201
 21
22.1
 31
0.0
  0
LINE
  5
28A
330
1F
100
AcDbEntity
  8
0
  6
Continuous
 62
     7
370
    15
100
AcDbLine
 10
1.0103629711
 20
22.225
 30
0.0
 11
10.8467449034
 21
22.225
 31
0.0
  0
LINE
  5
28B
330
1F
100
AcDbEntity
  8
0
  6
Continuous
 62
     7
370
    15
100
AcDbLine
 10
-19.5650748218
 20
-11.0889974898
 30
0.0
 11
-19.1489092686
 21
-11.5051630431
 31
0.0
  0
LINE
  5
28C
330
1F
100
AcDbEntity
  8
0
  6
Continuous
 62
     7
370
    15
100
AcDbLine
 10
-17.5992572386
 20
-11.1117397801
 30
0.0
 11
-17.2707092737
 21
-10.7831918153
 31
0.0
  0
LINE
  5
28D
330
1F
100
AcDbEntity
  8
0
  6
Continuous
 62
     7
370
    15
100
AcDbLine
 10
-17.2707092737
 20
-10.7831918153
 30
0.0
 11
-18.8452611795
 21
-9.2086399095
 31
0.0
  0
LINE
  5
28E
330
1F
100
AcDbEntity
  8
0
  6
Continuous
 62
     7
370
    15
100
AcDbLine
 10
-18.8452611795
 20
-9.2086399095
 30
0.0
 11
-19.1749873371
 21
-9.5383660671
 31
0.0
  0
LINE
  5
28F
330
1F
100
AcDbEntity
  8
0
  6
Continuous
 62
     7
370
    15
100
AcDbLine
 10
-18.4741947202
 20
-12.1810699163
 30
0.0
 11
-18.0788088715
 21
-12.576455765
 31
0.0
  0
LINE
  5
290
330
1F
100
AcDbEntity
  8
0
  6
Continuous
 62
     7
370
    15
100
AcDbLine
 10
-18.0788088715
 20
-12.576455765
 30
0.0
 11
-17.7488446052
 21
-12.2464914987
 31
0.0
  0
LINE
  5
291
330
1F
100
AcDbEntity
  8
0
  6
Continuous
 62
     7
370
    15
100
AcDbLine
 10
-17.2571837496
 20
-13.3978191455
 30
0.0
 11
-16.8670659816
 21
-13.7879369134
 31
0.0
  0
LINE
  5
292
330
1F
100
AcDbEntity
  8
0
  6
Continuous
 62
     7
370
    15
100
AcDbLine
 10
-17.1726859195
 20
-10.8795611156
 30
0.0
 11
-18.4741947202
 21
-12.1810699163
 31
0.0
  0
LINE
  5
293
330
1F
100
AcDbEntity
  8
0
  6
Continuous
 62
     7
370
    15
100
AcDbLine
 10
-15.4115083343
 20
-12.6441717414
 30
0.0
 11
-16.7107747566
 21
-13.9434381638
 31
0.0
  0
LINE
  5
294
330
1F
100
AcDbEntity
  8
0
  6
Continuous
 62
     7
370
    15
100
AcDbLine
 10
-16.7107747566
 20
-13.9434381638
 30
0.0
 11
-16.2976189923
 21
-14.3565939281
 31
0.0
  0
LINE
  5
295
330
1F
100
AcDbEntity
  8
0
  6
Continuous
 62
     7
370
    15
100
AcDbLine
 10
-16.2976189923
 20
-14.3565939281
 30
0.0
 11
-14.9983525699
 21
-13.0573275058
 31
0.0
  0
LINE
  5
296
330
1F
100
AcDbEntity
  8
0
  6
Continuous
 62
     7
370
    15
100
AcDbLine
 10
-14.9983525699
 20
-13.0573275058
 30
0.0
 11
-15.4115083343
 21
-12.6441717414
 31
0.0
  0
LINE
  5
297
330
1F
100
AcDbEntity
  8
0
  6
Continuous
 62
     7
370
    15
100
AcDbLine
 10
-14.8104557106
 20
-13.2417913245
 30
0.0
 11
-16.1117690365
 21
-14.5431046504
 31
0.0
  0
LINE
  5
298
330
1F
100
AcDbEntity
  8
0
  6
Continuous
 62
     7
370
    15
100
AcDbLine
 10
-16.1117690365
 20
-14.5431046504
 30
0.0
 11
-15.7167660619
 21
-14.938107625
 31
0.0
  0
LINE
  5
299
330
1F
100
AcDbEntity
  8
0
  6
Continuous
 62
     7
370
    15
100
AcDbLine
 10
-15.7167660619
 20
-14.938107625
 30
0.0
 11
-15.3986701782
 21
-14.6200117414
 31
0.0
  0
LINE
  5
29A
330
1F
100
AcDbEntity
  8
0
  6
Continuous
 62
     7
370
    15
100
AcDbLine
 10
-12.7551959494
 20
-17.2371593424
 30
0.0
 11
-13.6820323394
 21
-16.3103229524
 31
0.0
  0
LINE
  5
29B
330
1F
100
AcDbEntity
  8
0
  6
Continuous
 62
     7
370
    15
100
AcDbLine
 10
-13.6820323394
 20
-16.3103229524
 30
0.0
 11
-12.7125529971
 21
-15.3408436102
 31
0.0
  0
LINE
  5
29C
330
1F
100
AcDbEntity
  8
0
  6
Continuous
 62
     7
370
    15
100
AcDbLine
 10
-12.7125529971
 20
-15.3408436102
 30
0.0
 11
-13.1302752232
 21
-14.9231213842
 31
0.0
  0
LINE
  5
29D
330
1F
100
AcDbEntity
  8
0
  6
Continuous
 62
     7
370
    15
100
AcDbLine
 10
-13.1302752232
 20
-14.9231213842
 30
0.0
 11
-14.432694181
 21
-16.225540342
 31
0.0
  0
LINE
  5
29E
330
1F
100
AcDbEntity
  8
0
  6
Continuous
 62
     7
370
    15
100
AcDbLine
 10
-14.432694181
 20
-16.225540342
 30
0.0
 11
-13.088135565
 21
-17.5700989579
 31
0.0
  0
LINE
  5
29F
330
1F
100
AcDbEntity
  8
0
  6
Continuous
 62
     7
370
    15
100
AcDbLine
 10
-13.088135565
 20
-17.5700989579
 30
0.0
 11
-12.7551959494
 21
-17.2371593424
 31
0.0
  0
LINE
  5
2A0
330
1F
100
AcDbEntity
  8
0
  6
Continuous
 62
     7
370
    15
100
AcDbLine
 10
-11.8892453196
 20
-18.8082333172
 30
0.0
 11
-12.3601100821
 21
-18.3373685548
 31
0.0
  0
LINE
  5
2A1
330
1F
100
AcDbEntity
  8
0
  6
Continuous
 62
     7
370
    15
100
AcDbLine
 10
-9.226120057
 20
-21.4311791322
 30
0.0
 11
-9.2605229044
 21
-20.3397308949
 31
0.0
  0
LINE
  5
2A2
330
1F
100
AcDbEntity
  8
0
  6
Continuous
 62
     7
370
    15
100
AcDbLine
 10
-9.2605229044
 20
-20.3397308949
 30
0.0
 11
-9.802833815
 21
-20.2756434338
 31
0.0
  0
LINE
  5
2A3
330
1F
100
AcDbEntity
  8
0
  6
Continuous
 62
     7
370
    15
100
AcDbLine
 10
-9.8567398432
 20
-18.1966484511
 30
0.0
 11
-9.8199814416
 21
-19.6085942041
 31
0.0
  0
LINE
  5
2A4
330
1F
100
AcDbEntity
  8
0
  6
Continuous
 62
     7
370
    15
100
AcDbLine
 10
-9.8199814416
 20
-19.6085942041
 30
0.0
 11
-9.2839517316
 21
-19.6599027692
 31
0.0
  0
LINE
  5
2A5
330
1F
100
AcDbEntity
  8
0
  6
Continuous
 62
     7
370
    15
100
AcDbLine
 10
6.7766600064
 20
-18.8055124695
 30
0.0
 11
6.4130236427
 21
-18.9321358461
 31
0.0
  0
LINE
  5
2A6
330
1F
100
AcDbEntity
  8
0
  6
Continuous
 62
     7
370
    15
100
AcDbLine
 10
6.4130236427
 20
-18.9321358461
 30
0.0
 11
7.0744063784
 21
-20.8260174948
 31
0.0
  0
LINE
  5
2A7
330
1F
100
AcDbEntity
  8
0
  6
Continuous
 62
     7
370
    15
100
AcDbLine
 10
7.0733320843
 20
-20.8282397422
 30
0.0
 11
7.4369684479
 21
-20.7016163656
 31
0.0
  0
LINE
  5
2A8
330
1F
100
AcDbEntity
  8
0
  6
Continuous
 62
     7
370
    15
100
AcDbLine
 10
6.7755857122
 20
-18.8077347169
 30
0.0
 11
7.4369684479
 21
-20.7016163656
 31
0.0
  0
LINE
  5
2A9
330
1F
100
AcDbEntity
  8
0
  6
Continuous
 62
     7
370
    15
100
AcDbLine
 10
8.4881014052
 20
-18.1302217206
 30
0.0
 11
8.1504390675
 21
-18.2726730193
 31
0.0
  0
LINE
  5
2AA
330
1F
100
AcDbEntity
  8
0
  6
Continuous
 62
     7
370
    15
100
AcDbLine
 10
8.1504390675
 20
-18.2726730193
 30
0.0
 11
8.6246699004
 21
-19.3905485932
 31
0.0
  0
LINE
  5
2AB
330
1F
100
AcDbEntity
  8
0
  6
Continuous
 62
     7
370
    15
100
AcDbLine
 10
7.4104030553
 20
-18.5871453453
 30
0.0
 11
8.6208124441
 21
-19.3859035388
 31
0.0
  0
LINE
  5
2AC
330
1F
100
AcDbEntity
  8
0
  6
Continuous
 62
     7
370
    15
100
AcDbLine
 10
7.4105851714
 20
-18.5851730193
 30
0.0
 11
7.0855040026
 21
-18.7227541881
 31
0.0
  0
LINE
  5
2AD
330
1F
100
AcDbEntity
  8
0
  6
Continuous
 62
     7
370
    15
100
AcDbLine
 10
7.0855040026
 20
-18.7227541881
 30
0.0
 11
7.8546950802
 21
-20.5386481999
 31
0.0
  0
LINE
  5
2AE
330
1F
100
AcDbEntity
  8
0
  6
Continuous
 62
     7
370
    15
100
AcDbLine
 10
7.8537669896
 20
-20.5409360063
 30
0.0
 11
8.1914293273
 21
-20.3980788634
 31
0.0
  0
LINE
  5
2AF
330
1F
100
AcDbEntity
  8
0
  6
Continuous
 62
     7
370
    15
100
AcDbLine
 10
7.7159760925
 20
-19.27735105
 30
0.0
 11
8.1914293273
 21
-20.3980788634
 31
0.0
  0
LINE
  5
2B0
330
1F
100
AcDbEntity
  8
0
  6
Continuous
 62
     7
370
    15
100
AcDbLine
 10
7.7198384182
 20
-19.2820074349
 30
0.0
 11
8.9314675408
 21
-20.0836066841
 31
0.0
  0
LINE
  5
2B1
330
1F
100
AcDbEntity
  8
0
  6
Continuous
 62
     7
370
    15
100
AcDbLine
 10
8.9312832234
 20
-20.0855788634
 30
0.0
 11
9.2563643922
 21
-19.9484035388
 31
0.0
  0
LINE
  5
2B2
330
1F
100
AcDbEntity
  8
0
  6
Continuous
 62
     7
370
    15
100
AcDbLine
 10
8.4871726218
 20
-18.1325078873
 30
0.0
 11
9.2563643922
 21
-19.9484035388
 31
0.0
  0
LINE
  5
2B3
330
1F
100
AcDbEntity
  8
0
  6
Continuous
 62
     7
370
    15
100
AcDbLine
 10
8.6171666444
 20
-18.0347359373
 30
0.0
 11
9.8728484626
 21
-17.3529177555
 31
0.0
  0
LINE
  5
2B4
330
1F
100
AcDbEntity
  8
0
  6
Continuous
 62
     7
370
    15
100
AcDbLine
 10
8.6171666444
 20
-18.0347359373
 30
0.0
 11
8.7721991119
 21
-18.3204502231
 31
0.0
  0
LINE
  5
2B5
330
1F
100
AcDbEntity
  8
0
  6
Continuous
 62
     7
370
    15
100
AcDbLine
 10
8.7721991119
 20
-18.3204502231
 30
0.0
 11
9.2312088522
 21
-18.0712619114
 31
0.0
  0
LINE
  5
2B6
330
1F
100
AcDbEntity
  8
0
  6
Continuous
 62
     7
370
    15
100
AcDbLine
 10
9.2312088522
 20
-18.0712619114
 30
0.0
 11
10.0358868704
 21
-19.5494143885
 31
0.0
  0
LINE
  5
2B7
330
1F
100
AcDbEntity
  8
0
  6
Continuous
 62
     7
370
    15
100
AcDbLine
 10
10.0351861249
 20
-19.5517813919
 30
0.0
 11
10.3728484626
 21
-19.3683398334
 31
0.0
  0
LINE
  5
2B8
330
1F
100
AcDbEntity
  8
0
  6
Continuous
 62
     7
370
    15
100
AcDbLine
 10
9.5665043616
 20
-17.8871192747
 30
0.0
 11
10.3728484626
 21
-19.3683398334
 31
0.0
  0
LINE
  5
2B9
330
1F
100
AcDbEntity
  8
0
  6
Continuous
 62
     7
370
    15
100
AcDbLine
 10
9.5688711898
 20
-17.8878203529
 30
0.0
 11
10.0278809301
 21
-17.6386320412
 31
0.0
  0
LINE
  5
2BA
330
1F
100
AcDbEntity
  8
0
  6
Continuous
 62
     7
370
    15
100
AcDbLine
 10
10.0278809301
 20
-17.6386320412
 30
0.0
 11
9.8728484626
 21
-17.3529177555
 31
0.0
  0
LINE
  5
2BB
330
1F
100
AcDbEntity
  8
0
  6
Continuous
 62
     7
370
    15
100
AcDbLine
 10
11.2173661081
 20
-18.4283109657
 30
0.0
 11
10.8537297445
 21
-18.6450317449
 31
0.0
  0
LINE
  5
2BC
330
1F
100
AcDbEntity
  8
0
  6
Continuous
 62
     7
370
    15
100
AcDbLine
 10
10.8537297445
 20
-18.6450317449
 30
0.0
 11
11.0704505237
 21
-19.0086681086
 31
0.0
  0
LINE
  5
2BD
330
1F
100
AcDbEntity
  8
0
  6
Continuous
 62
     7
370
    15
100
AcDbLine
 10
11.0704505237
 20
-19.0086681086
 30
0.0
 11
11.4340868874
 21
-18.7919473293
 31
0.0
  0
LINE
  5
2BE
330
1F
100
AcDbEntity
  8
0
  6
Continuous
 62
     7
370
    15
100
AcDbLine
 10
11.4340868874
 20
-18.7919473293
 30
0.0
 11
11.2173661081
 21
-18.4283109657
 31
0.0
  0
LINE
  5
2BF
330
1F
100
AcDbEntity
  8
0
  6
Continuous
 62
     7
370
    15
100
AcDbLine
 10
13.0948353525
 20
-15.1181452074
 30
0.0
 11
12.8622866512
 21
-15.3166029996
 31
0.0
  0
LINE
  5
2C0
330
1F
100
AcDbEntity
  8
0
  6
Continuous
 62
     7
370
    15
100
AcDbLine
 10
12.8622866512
 20
-15.3166029996
 30
0.0
 11
13.5980362654
 21
-17.2913320457
 31
0.0
  0
LINE
  5
2C1
330
1F
100
AcDbEntity
  8
0
  6
Continuous
 62
     7
370
    15
100
AcDbLine
 10
13.5972704174
 20
-17.294281571
 30
0.0
 11
13.90611782
 21
-17.0304828697
 31
0.0
  0
LINE
  5
2C2
330
1F
100
AcDbEntity
  8
0
  6
Continuous
 62
     7
370
    15
100
AcDbLine
 10
13.90611782
 20
-17.0304828697
 30
0.0
 11
13.775841846
 21
-16.6924146879
 31
0.0
  0
LINE
  5
2C3
330
1F
100
AcDbEntity
  8
0
  6
Continuous
 62
     7
370
    15
100
AcDbLine
 10
13.775841846
 20
-16.6924146879
 30
0.0
 11
14.314802885
 21
-16.2321874152
 31
0.0
  0
LINE
  5
2C4
330
1F
100
AcDbEntity
  8
0
  6
Continuous
 62
     7
370
    15
100
AcDbLine
 10
14.314802885
 20
-16.2321874152
 30
0.0
 11
14.6260853525
 21
-16.4156289736
 31
0.0
  0
LINE
  5
2C5
330
1F
100
AcDbEntity
  8
0
  6
Continuous
 62
     7
370
    15
100
AcDbLine
 10
14.6260853525
 20
-16.4156289736
 30
0.0
 11
14.9349327551
 21
-16.1518302723
 31
0.0
  0
LINE
  5
2C6
330
1F
100
AcDbEntity
  8
0
  6
Continuous
 62
     7
370
    15
100
AcDbLine
 10
13.0948353525
 20
-15.1181452074
 30
0.0
 11
14.9349327551
 21
-16.1518302723
 31
0.0
  0
LINE
  5
2C7
330
1F
100
AcDbEntity
  8
0
  6
Continuous
 62
     7
370
    15
100
AcDbLine
 10
13.6232388831
 20
-14.6665330605
 30
0.0
 11
14.6171512208
 21
-13.6758674761
 31
0.0
  0
LINE
  5
2C8
330
1F
100
AcDbEntity
  8
0
  6
Continuous
 62
     7
370
    15
100
AcDbLine
 10
13.6232388831
 20
-14.6665330605
 30
0.0
 11
13.8561934286
 21
-14.9002992943
 31
0.0
  0
LINE
  5
2C9
330
1F
100
AcDbEntity
  8
0
  6
Continuous
 62
     7
370
    15
100
AcDbLine
 10
13.8561934286
 20
-14.9002992943
 30
0.0
 11
14.2234823896
 21
-14.5342278657
 31
0.0
  0
LINE
  5
2CA
330
1F
100
AcDbEntity
  8
0
  6
Continuous
 62
     7
370
    15
100
AcDbLine
 10
14.2234823896
 20
-14.5342278657
 30
0.0
 11
15.388259195
 21
-15.7005904919
 31
0.0
  0
LINE
  5
2CB
330
1F
100
AcDbEntity
  8
0
  6
Continuous
 62
     7
370
    15
100
AcDbLine
 10
15.3882551169
 20
-15.7030590345
 30
0.0
 11
15.6479953766
 21
-15.4441304631
 31
0.0
  0
LINE
  5
2CC
330
1F
100
AcDbEntity
  8
0
  6
Continuous
 62
     7
370
    15
100
AcDbLine
 10
14.4807544171
 20
-14.2752950968
 30
0.0
 11
15.6479953766
 21
-15.4441304631
 31
0.0
  0
LINE
  5
2CD
330
1F
100
AcDbEntity
  8
0
  6
Continuous
 62
     7
370
    15
100
AcDbLine
 10
14.4832226494
 20
-14.2752992943
 30
0.0
 11
14.8501057663
 21
-13.9096337098
 31
0.0
  0
LINE
  5
2CE
330
1F
100
AcDbEntity
  8
0
  6
Continuous
 62
     7
370
    15
100
AcDbLine
 10
14.8501057663
 20
-13.9096337098
 30
0.0
 11
14.6171512208
 21
-13.6758674761
 31
0.0
  0
LINE
  5
2CF
330
1F
100
AcDbEntity
  8
0
  6
Continuous
 62
     7
370
    15
100
AcDbLine
 10
16.1858117886
 20
-14.2743926625
 30
0.0
 11
15.8980682821
 21
-14.5860809742
 31
0.0
  0
LINE
  5
2D0
330
1F
100
AcDbEntity
  8
0
  6
Continuous
 62
     7
370
    15
100
AcDbLine
 10
15.8980682821
 20
-14.5860809742
 30
0.0
 11
16.2097565938
 21
-14.8738244807
 31
0.0
  0
LINE
  5
2D1
330
1F
100
AcDbEntity
  8
0
  6
Continuous
 62
     7
370
    15
100
AcDbLine
 10
16.2097565938
 20
-14.8738244807
 30
0.0
 11
16.4975001003
 21
-14.562136169
 31
0.0
  0
LINE
  5
2D2
330
1F
100
AcDbEntity
  8
0
  6
Continuous
 62
     7
370
    15
100
AcDbLine
 10
16.4975001003
 20
-14.562136169
 30
0.0
 11
16.1858117886
 21
-14.2743926625
 31
0.0
  0
LINE
  5
2D3
330
1F
100
AcDbEntity
  8
0
  6
Continuous
 62
     7
370
    15
100
AcDbLine
 10
18.4589383749
 20
-7.6544349762
 30
0.0
 11
18.1793117515
 21
-8.32570121
 31
0.0
  0
LINE
  5
2D4
330
1F
100
AcDbEntity
  8
0
  6
Continuous
 62
     7
370
    15
100
AcDbLine
 10
18.1793117515
 20
-8.32570121
 30
0.0
 11
20.0234675957
 21
-9.0935583529
 31
0.0
  0
LINE
  5
2D5
330
1F
100
AcDbEntity
  8
0
  6
Continuous
 62
     7
370
    15
100
AcDbLine
 10
20.0234675957
 20
-9.0935583529
 30
0.0
 11
20.303094219
 21
-8.4222921191
 31
0.0
  0
LINE
  5
2D6
330
1F
100
AcDbEntity
  8
0
  6
Continuous
 62
     7
370
    15
100
AcDbLine
 10
20.4559916802
 20
-6.8898735702
 30
0.0
 11
20.3204397322
 21
-7.2794839598
 31
0.0
  0
LINE
  5
2D7
330
1F
100
AcDbEntity
  8
0
  6
Continuous
 62
     7
370
    15
100
AcDbLine
 10
20.3204397322
 20
-7.2794839598
 30
0.0
 11
20.7100501218
 21
-7.4150359079
 31
0.0
  0
LINE
  5
2D8
330
1F
100
AcDbEntity
  8
0
  6
Continuous
 62
     7
370
    15
100
AcDbLine
 10
20.7100501218
 20
-7.4150359079
 30
0.0
 11
20.8456020698
 21
-7.0254255183
 31
0.0
  0
LINE
  5
2D9
330
1F
100
AcDbEntity
  8
0
  6
Continuous
 62
     7
370
    15
100
AcDbLine
 10
20.8456020698
 20
-7.0254255183
 30
0.0
 11
20.4559916802
 21
-6.8898735702
 31
0.0
  0
LINE
  5
2DA
330
1F
100
AcDbEntity
  8
0
  6
Continuous
 62
     7
370
    15
100
AcDbLine
 10
20.843380092
 20
-7.0265004472
 30
0.0
 11
20.8456020698
 21
-7.0254255183
 31
0.0
  0
LINE
  5
2DB
330
1F
100
AcDbEntity
  8
0
  6
Continuous
 62
     7
370
    15
100
AcDbLine
 10
20.843380092
 20
-7.0265004472
 30
0.0
 11
20.4570666092
 21
-6.892095548
 31
0.0
  0
LINE
  5
2DC
330
1F
100
AcDbEntity
  8
0
  6
Continuous
 62
     7
370
    15
100
AcDbLine
 10
20.4570666092
 20
-6.892095548
 30
0.0
 11
20.4559916802
 21
-6.8898735702
 31
0.0
  0
LINE
  5
2DD
330
1F
100
AcDbEntity
  8
0
  6
Continuous
 62
     7
370
    15
100
AcDbLine
 10
20.4570666092
 20
-6.892095548
 30
0.0
 11
20.32266171
 21
-7.2784090308
 31
0.0
  0
LINE
  5
2DE
330
1F
100
AcDbEntity
  8
0
  6
Continuous
 62
     7
370
    15
100
AcDbLine
 10
20.32266171
 20
-7.2784090308
 30
0.0
 11
20.3204397322
 21
-7.2794839598
 31
0.0
  0
LINE
  5
2DF
330
1F
100
AcDbEntity
  8
0
  6
Continuous
 62
     7
370
    15
100
AcDbLine
 10
20.7089751928
 20
-7.4128139301
 30
0.0
 11
20.7100501218
 21
-7.4150359079
 31
0.0
  0
LINE
  5
2E0
330
1F
100
AcDbEntity
  8
0
  6
Continuous
 62
     7
370
    15
100
AcDbLine
 10
20.7089751928
 20
-7.4128139301
 30
0.0
 11
20.843380092
 21
-7.0265004472
 31
0.0
  0
LINE
  5
2E1
330
1F
100
AcDbEntity
  8
0
  6
Continuous
 62
     7
370
    15
100
AcDbLine
 10
19.4530116708
 20
-7.2733435734
 30
0.0
 11
19.4536624009
 21
-7.2717239373
 31
0.0
  0
LINE
  5
2E2
330
1F
100
AcDbEntity
  8
0
  6
Continuous
 62
     7
370
    15
100
AcDbLine
 10
18.8403057101
 20
-7.2380213827
 30
0.0
 11
18.8396201931
 21
-7.2364154957
 31
0.0
  0
LINE
  5
2E3
330
1F
100
AcDbEntity
  8
0
  6
Continuous
 62
     7
370
    15
100
AcDbLine
 10
20.32266171
 20
-7.2784090308
 30
0.0
 11
20.7089751928
 21
-7.4128139301
 31
0.0
  0
LINE
  5
2E4
330
1F
100
AcDbEntity
  8
0
  6
Continuous
 62
     7
370
    15
100
AcDbLine
 10
20.3298832824
 20
-7.8580088837
 30
0.0
 11
20.33150331
 21
-7.8573570542
 31
0.0
  0
LINE
  5
2E5
330
1F
100
AcDbEntity
  8
0
  6
Continuous
 62
     7
370
    15
100
AcDbLine
 10
19.8522013619
 20
-8.6260258853
 30
0.0
 11
18.6314221411
 21
-8.1179090022
 31
0.0
  0
LINE
  5
2E6
330
1F
100
AcDbEntity
  8
0
  6
Continuous
 62
     7
370
    15
100
AcDbLine
 10
18.4605437551
 20
-7.6551200384
 30
0.0
 11
18.1815941926
 21
-8.3247609329
 31
0.0
  0
LINE
  5
2E7
330
1F
100
AcDbEntity
  8
0
  6
Continuous
 62
     7
370
    15
100
AcDbLine
 10
18.1815941926
 20
-8.3247609329
 30
0.0
 11
18.1793117515
 21
-8.32570121
 31
0.0
  0
LINE
  5
2E8
330
1F
100
AcDbEntity
  8
0
  6
Continuous
 62
     7
370
    15
100
AcDbLine
 10
20.3014752442
 20
-8.4216396919
 30
0.0
 11
20.303094219
 21
-8.4222921191
 31
0.0
  0
LINE
  5
2E9
330
1F
100
AcDbEntity
  8
0
  6
Continuous
 62
     7
370
    15
100
AcDbLine
 10
19.85314065
 20
-8.6283073629
 30
0.0
 11
18.629138693
 21
-8.1188491016
 31
0.0
  0
LINE
  5
2EA
330
1F
100
AcDbEntity
  8
0
  6
Continuous
 62
     7
370
    15
100
AcDbLine
 10
18.1815941926
 20
-8.3247609329
 30
0.0
 11
20.022527473
 21
-9.0912762865
 31
0.0
  0
LINE
  5
2EB
330
1F
100
AcDbEntity
  8
0
  6
Continuous
 62
     7
370
    15
100
AcDbLine
 10
20.022527473
 20
-9.0912762865
 30
0.0
 11
20.3014752442
 21
-8.4216396919
 31
0.0
  0
LINE
  5
2EC
330
1F
100
AcDbEntity
  8
0
  6
Continuous
 62
     7
370
    15
100
AcDbLine
 10
19.8449141365
 20
-9.5128346069
 30
0.0
 11
19.8472777046
 21
-9.5121216644
 31
0.0
  0
LINE
  5
2ED
330
1F
100
AcDbEntity
  8
0
  6
Continuous
 62
     7
370
    15
100
AcDbLine
 10
19.8449141365
 20
-9.5128346069
 30
0.0
 11
18.0817574586
 21
-8.5672446054
 31
0.0
  0
LINE
  5
2EE
330
1F
100
AcDbEntity
  8
0
  6
Continuous
 62
     7
370
    15
100
AcDbLine
 10
18.0817574586
 20
-8.5672446054
 30
0.0
 11
17.9024002523
 21
-8.9018302457
 31
0.0
  0
LINE
  5
2EF
330
1F
100
AcDbEntity
  8
0
  6
Continuous
 62
     7
370
    15
100
AcDbLine
 10
17.9024002523
 20
-8.9018302457
 30
0.0
 11
17.9000374449
 21
-8.9025437423
 31
0.0
  0
LINE
  5
2F0
330
1F
100
AcDbEntity
  8
0
  6
Continuous
 62
     7
370
    15
100
AcDbLine
 10
17.9024002523
 20
-8.9018302457
 30
0.0
 11
18.98762146
 21
-9.483736852
 31
0.0
  0
LINE
  5
2F1
330
1F
100
AcDbEntity
  8
0
  6
Continuous
 62
     7
370
    15
100
AcDbLine
 10
19.680197584
 20
-9.8197148341
 30
0.0
 11
19.8449141365
 21
-9.5128346069
 31
0.0
  0
LINE
  5
2F2
330
1F
100
AcDbEntity
  8
0
  6
Continuous
 62
     7
370
    15
100
AcDbLine
 10
18.98762146
 20
-9.483736852
 30
0.0
 11
17.5236938925
 21
-9.6079365483
 31
0.0
  0
LINE
  5
2F3
330
1F
100
AcDbEntity
  8
0
  6
Continuous
 62
     7
370
    15
100
AcDbLine
 10
17.5236938925
 20
-9.6079365483
 30
0.0
 11
17.3593799648
 21
-9.914816972
 31
0.0
  0
LINE
  5
2F4
330
1F
100
AcDbEntity
  8
0
  6
Continuous
 62
     7
370
    15
100
AcDbLine
 10
17.3593799648
 20
-9.914816972
 30
0.0
 11
17.3570179643
 21
-9.9155307553
 31
0.0
  0
LINE
  5
2F5
330
1F
100
AcDbEntity
  8
0
  6
Continuous
 62
     7
370
    15
100
AcDbLine
 10
18.21422947
 20
-9.9426932704
 30
0.0
 11
19.680197584
 21
-9.8197148341
 31
0.0
  0
LINE
  5
2F6
330
1F
100
AcDbEntity
  8
0
  6
Continuous
 62
     7
370
    15
100
AcDbLine
 10
17.3593799648
 20
-9.914816972
 30
0.0
 11
19.1225382104
 21
-10.8604078142
 31
0.0
  0
LINE
  5
2F7
330
1F
100
AcDbEntity
  8
0
  6
Continuous
 62
     7
370
    15
100
AcDbLine
 10
17.4920024223
 20
-10.2971394817
 30
0.0
 11
17.4944073369
 21
-10.2965843257
 31
0.0
  0
LINE
  5
2F8
330
1F
100
AcDbEntity
  8
0
  6
Continuous
 62
     7
370
    15
100
AcDbLine
 10
17.4920024223
 20
-10.2971394817
 30
0.0
 11
17.2092482261
 21
-10.1204181091
 31
0.0
  0
LINE
  5
2F9
330
1F
100
AcDbEntity
  8
0
  6
Continuous
 62
     7
370
    15
100
AcDbLine
 10
17.2092482261
 20
-10.1204181091
 30
0.0
 11
17.2086930512
 21
-10.1180128971
 31
0.0
  0
LINE
  5
2FA
330
1F
100
AcDbEntity
  8
0
  6
Continuous
 62
     7
370
    15
100
AcDbLine
 10
17.2092482261
 20
-10.1204181091
 30
0.0
 11
16.5235980239
 21
-11.2177012839
 31
0.0
  0
LINE
  5
2FB
330
1F
100
AcDbEntity
  8
0
  6
Continuous
 62
     7
370
    15
100
AcDbLine
 10
16.9993076172
 20
-11.0856946765
 30
0.0
 11
17.0017125317
 21
-11.0851395205
 31
0.0
  0
LINE
  5
2FC
330
1F
100
AcDbEntity
  8
0
  6
Continuous
 62
     7
370
    15
100
AcDbLine
 10
16.9993076172
 20
-11.0856946765
 30
0.0
 11
17.4920024223
 21
-10.2971394817
 31
0.0
  0
LINE
  5
2FD
330
1F
100
AcDbEntity
  8
0
  6
Continuous
 62
     7
370
    15
100
AcDbLine
 10
19.1225382104
 20
-10.8604078142
 30
0.0
 11
19.3018953645
 21
-10.5258222711
 31
0.0
  0
LINE
  5
2FE
330
1F
100
AcDbEntity
  8
0
  6
Continuous
 62
     7
370
    15
100
AcDbLine
 10
18.1202492113
 20
-10.8523343093
 30
0.0
 11
18.1226540901
 21
-10.8517791309
 31
0.0
  0
LINE
  5
2FF
330
1F
100
AcDbEntity
  8
0
  6
Continuous
 62
     7
370
    15
100
AcDbLine
 10
18.1202492113
 20
-10.8523343093
 30
0.0
 11
17.8374950733
 21
-10.675612973
 31
0.0
  0
LINE
  5
300
330
1F
100
AcDbEntity
  8
0
  6
Continuous
 62
     7
370
    15
100
AcDbLine
 10
17.8374950733
 20
-10.675612973
 30
0.0
 11
17.8369398044
 21
-10.6732077023
 31
0.0
  0
LINE
  5
301
330
1F
100
AcDbEntity
  8
0
  6
Continuous
 62
     7
370
    15
100
AcDbLine
 10
17.8374950733
 20
-10.675612973
 30
0.0
 11
17.4178522162
 21
-11.3472850509
 31
0.0
  0
LINE
  5
302
330
1F
100
AcDbEntity
  8
0
  6
Continuous
 62
     7
370
    15
100
AcDbLine
 10
17.4178522162
 20
-11.3472850509
 30
0.0
 11
17.4172969473
 21
-11.3448797802
 31
0.0
  0
LINE
  5
303
330
1F
100
AcDbEntity
  8
0
  6
Continuous
 62
     7
370
    15
100
AcDbLine
 10
17.7006063542
 20
-11.5240063872
 30
0.0
 11
17.703011233
 21
-11.5234512088
 31
0.0
  0
LINE
  5
304
330
1F
100
AcDbEntity
  8
0
  6
Continuous
 62
     7
370
    15
100
AcDbLine
 10
17.7006063542
 20
-11.5240063872
 30
0.0
 11
18.1202492113
 21
-10.8523343093
 31
0.0
  0
LINE
  5
305
330
1F
100
AcDbEntity
  8
0
  6
Continuous
 62
     7
370
    15
100
AcDbLine
 10
18.9205737927
 20
-11.1899965882
 30
0.0
 11
18.6378197129
 21
-11.0132752883
 31
0.0
  0
LINE
  5
306
330
1F
100
AcDbEntity
  8
0
  6
Continuous
 62
     7
370
    15
100
AcDbLine
 10
18.6378197129
 20
-11.0132752883
 30
0.0
 11
18.6372644797
 21
-11.01087004
 31
0.0
  0
LINE
  5
307
330
1F
100
AcDbEntity
  8
0
  6
Continuous
 62
     7
370
    15
100
AcDbLine
 10
18.6378197129
 20
-11.0132752883
 30
0.0
 11
18.1451249077
 21
-11.8018304831
 31
0.0
  0
LINE
  5
308
330
1F
100
AcDbEntity
  8
0
  6
Continuous
 62
     7
370
    15
100
AcDbLine
 10
18.1451249077
 20
-11.8018304831
 30
0.0
 11
18.1445696745
 21
-11.7994252348
 31
0.0
  0
LINE
  5
309
330
1F
100
AcDbEntity
  8
0
  6
Continuous
 62
     7
370
    15
100
AcDbLine
 10
17.4178522162
 20
-11.3472850509
 30
0.0
 11
16.9993076172
 21
-11.0856946765
 31
0.0
  0
LINE
  5
30A
330
1F
100
AcDbEntity
  8
0
  6
Continuous
 62
     7
370
    15
100
AcDbLine
 10
18.2349235905
 20
-12.287279763
 30
0.0
 11
18.9205737927
 21
-11.1899965882
 31
0.0
  0
LINE
  5
30B
330
1F
100
AcDbEntity
  8
0
  6
Continuous
 62
     7
370
    15
100
AcDbLine
 10
16.5235980239
 20
-11.2177012839
 30
0.0
 11
18.2349235905
 21
-12.287279763
 31
0.0
  0
LINE
  5
30C
330
1F
100
AcDbEntity
  8
0
  6
Continuous
 62
     7
370
    15
100
AcDbLine
 10
18.1451249077
 20
-11.8018304831
 30
0.0
 11
17.7006063542
 21
-11.5240063872
 31
0.0
  0
LINE
  5
30D
330
1F
100
AcDbEntity
  8
0
  6
Continuous
 62
     7
370
    15
100
AcDbLine
 10
16.9478946282
 20
-11.7668402066
 30
0.0
 11
16.948946493
 21
-11.7654465315
 31
0.0
  0
LINE
  5
30E
330
1F
100
AcDbEntity
  8
0
  6
Continuous
 62
     7
370
    15
100
AcDbLine
 10
16.0619372317
 20
-11.9215431424
 30
0.0
 11
16.0605536358
 21
-11.9204789991
 31
0.0
  0
LINE
  5
30F
330
1F
100
AcDbEntity
  8
0
  6
Continuous
 62
     7
370
    15
100
AcDbLine
 10
17.0343907957
 20
-12.6763445109
 30
0.0
 11
17.0357971423
 21
-12.6773783497
 31
0.0
  0
LINE
  5
310
330
1F
100
AcDbEntity
  8
0
  6
Continuous
 62
     7
370
    15
100
AcDbLine
 10
16.0619372317
 20
-11.9215431424
 30
0.0
 11
15.5995233518
 21
-12.5374201225
 31
0.0
  0
LINE
  5
311
330
1F
100
AcDbEntity
  8
0
  6
Continuous
 62
     7
370
    15
100
AcDbLine
 10
15.5995233518
 20
-12.5374201225
 30
0.0
 11
15.5970796099
 21
-12.5377679601
 31
0.0
  0
LINE
  5
312
330
1F
100
AcDbEntity
  8
0
  6
Continuous
 62
     7
370
    15
100
AcDbLine
 10
16.5393918203
 20
-12.8003579359
 30
0.0
 11
16.0690679186
 21
-12.4472067423
 31
0.0
  0
LINE
  5
313
330
1F
100
AcDbEntity
  8
0
  6
Continuous
 62
     7
370
    15
100
AcDbLine
 10
15.5995233518
 20
-12.5374201225
 30
0.0
 11
17.1811479026
 21
-13.7248539233
 31
0.0
  0
LINE
  5
314
330
1F
100
AcDbEntity
  8
0
  6
Continuous
 62
     7
370
    15
100
AcDbLine
 10
16.7963405136
 20
-12.9934731402
 30
0.0
 11
16.7987841553
 21
-12.993125103
 31
0.0
  0
LINE
  5
315
330
1F
100
AcDbEntity
  8
0
  6
Continuous
 62
     7
370
    15
100
AcDbLine
 10
16.7963405136
 20
-12.9934731402
 30
0.0
 11
17.0343907957
 21
-12.6763445109
 31
0.0
  0
LINE
  5
316
330
1F
100
AcDbEntity
  8
0
  6
Continuous
 62
     7
370
    15
100
AcDbLine
 10
-17.1025850558
 20
-11.6015715334
 30
0.0
 11
-17.4229773524
 21
-11.92196383
 31
0.0
  0
LINE
  5
317
330
1F
100
AcDbEntity
  8
0
  6
Continuous
 62
     7
370
    15
100
AcDbLine
 10
17.3937424167
 20
-13.4419304112
 30
0.0
 11
17.3961867527
 21
-13.4415828952
 31
0.0
  0
LINE
  5
318
330
1F
100
AcDbEntity
  8
0
  6
Continuous
 62
     7
370
    15
100
AcDbLine
 10
17.3937424167
 20
-13.4419304112
 30
0.0
 11
16.7963405136
 21
-12.9934731402
 31
0.0
  0
LINE
  5
319
330
1F
100
AcDbEntity
  8
0
  6
Continuous
 62
     7
370
    15
100
AcDbLine
 10
17.1811479026
 20
-13.7248539233
 30
0.0
 11
17.3937424167
 21
-13.4419304112
 31
0.0
  0
LINE
  5
31A
330
1F
100
AcDbEntity
  8
0
  6
Continuous
 62
     7
370
    15
100
AcDbLine
 10
14.847637534
 20
-13.9096295124
 30
0.0
 11
14.8501057663
 21
-13.9096337098
 31
0.0
  0
LINE
  5
31B
330
1F
100
AcDbEntity
  8
0
  6
Continuous
 62
     7
370
    15
100
AcDbLine
 10
14.847637534
 20
-13.9096295124
 30
0.0
 11
14.6171470551
 21
-13.6783359308
 31
0.0
  0
LINE
  5
31C
330
1F
100
AcDbEntity
  8
0
  6
Continuous
 62
     7
370
    15
100
AcDbLine
 10
14.6171470551
 20
-13.6783359308
 30
0.0
 11
14.6171512208
 21
-13.6758674761
 31
0.0
  0
LINE
  5
31D
330
1F
100
AcDbEntity
  8
0
  6
Continuous
 62
     7
370
    15
100
AcDbLine
 10
14.6171470551
 20
-13.6783359308
 30
0.0
 11
13.6257070833
 21
-14.6665372257
 31
0.0
  0
LINE
  5
31E
330
1F
100
AcDbEntity
  8
0
  6
Continuous
 62
     7
370
    15
100
AcDbLine
 10
14.4807544171
 20
-14.2752950968
 30
0.0
 11
14.847637534
 21
-13.9096295124
 31
0.0
  0
LINE
  5
31F
330
1F
100
AcDbEntity
  8
0
  6
Continuous
 62
     7
370
    15
100
AcDbLine
 10
16.4950337363
 20
-14.5622346899
 30
0.0
 11
16.4975001003
 21
-14.562136169
 31
0.0
  0
LINE
  5
320
330
1F
100
AcDbEntity
  8
0
  6
Continuous
 62
     7
370
    15
100
AcDbLine
 10
16.4950337363
 20
-14.5622346899
 30
0.0
 11
16.1859103096
 21
-14.2768590265
 31
0.0
  0
LINE
  5
321
330
1F
100
AcDbEntity
  8
0
  6
Continuous
 62
     7
370
    15
100
AcDbLine
 10
16.1859103096
 20
-14.2768590265
 30
0.0
 11
16.1858117886
 21
-14.2743926625
 31
0.0
  0
LINE
  5
322
330
1F
100
AcDbEntity
  8
0
  6
Continuous
 62
     7
370
    15
100
AcDbLine
 10
16.1859103096
 20
-14.2768590265
 30
0.0
 11
15.9005346461
 21
-14.5859824532
 31
0.0
  0
LINE
  5
323
330
1F
100
AcDbEntity
  8
0
  6
Continuous
 62
     7
370
    15
100
AcDbLine
 10
15.9005346461
 20
-14.5859824532
 30
0.0
 11
15.8980682821
 21
-14.5860809742
 31
0.0
  0
LINE
  5
324
330
1F
100
AcDbEntity
  8
0
  6
Continuous
 62
     7
370
    15
100
AcDbLine
 10
16.2096580728
 20
-14.8713581167
 30
0.0
 11
16.2097565938
 21
-14.8738244807
 31
0.0
  0
LINE
  5
325
330
1F
100
AcDbEntity
  8
0
  6
Continuous
 62
     7
370
    15
100
AcDbLine
 10
16.2096580728
 20
-14.8713581167
 30
0.0
 11
16.4950337363
 21
-14.5622346899
 31
0.0
  0
LINE
  5
326
330
1F
100
AcDbEntity
  8
0
  6
Continuous
 62
     7
370
    15
100
AcDbLine
 10
14.2234865851
 20
-14.5317594409
 30
0.0
 11
14.2234823896
 21
-14.5342278657
 31
0.0
  0
LINE
  5
327
330
1F
100
AcDbEntity
  8
0
  6
Continuous
 62
     7
370
    15
100
AcDbLine
 10
14.2234865851
 20
-14.5317594409
 30
0.0
 11
15.388259195
 21
-15.7005904919
 31
0.0
  0
LINE
  5
328
330
1F
100
AcDbEntity
  8
0
  6
Continuous
 62
     7
370
    15
100
AcDbLine
 10
15.9005346461
 20
-14.5859824532
 30
0.0
 11
16.2096580728
 21
-14.8713581167
 31
0.0
  0
LINE
  5
329
330
1F
100
AcDbEntity
  8
0
  6
Continuous
 62
     7
370
    15
100
AcDbLine
 10
13.8561976241
 20
-14.8978308695
 30
0.0
 11
13.8561934286
 21
-14.9002992943
 31
0.0
  0
LINE
  5
32A
330
1F
100
AcDbEntity
  8
0
  6
Continuous
 62
     7
370
    15
100
AcDbLine
 10
13.8561976241
 20
-14.8978308695
 30
0.0
 11
14.2234865851
 21
-14.5317594409
 31
0.0
  0
LINE
  5
32B
330
1F
100
AcDbEntity
  8
0
  6
Continuous
 62
     7
370
    15
100
AcDbLine
 10
13.6257070833
 20
-14.6665372257
 30
0.0
 11
13.8561976241
 21
-14.8978308695
 31
0.0
  0
LINE
  5
32C
330
1F
100
AcDbEntity
  8
0
  6
Continuous
 62
     7
370
    15
100
AcDbLine
 10
14.931897715
 20
-16.1521272348
 30
0.0
 11
14.9349327551
 21
-16.1518302723
 31
0.0
  0
LINE
  5
32D
330
1F
100
AcDbEntity
  8
0
  6
Continuous
 62
     7
370
    15
100
AcDbLine
 10
14.931897715
 20
-16.1521272348
 30
0.0
 11
13.0950421398
 21
-15.1202632847
 31
0.0
  0
LINE
  5
32E
330
1F
100
AcDbEntity
  8
0
  6
Continuous
 62
     7
370
    15
100
AcDbLine
 10
13.0950421398
 20
-15.1202632847
 30
0.0
 11
12.8643477201
 21
-15.3171386271
 31
0.0
  0
LINE
  5
32F
330
1F
100
AcDbEntity
  8
0
  6
Continuous
 62
     7
370
    15
100
AcDbLine
 10
12.8643477201
 20
-15.3171386271
 30
0.0
 11
12.8622866512
 21
-15.3166029996
 31
0.0
  0
LINE
  5
330
330
1F
100
AcDbEntity
  8
0
  6
Continuous
 62
     7
370
    15
100
AcDbLine
 10
12.8643477201
 20
-15.3171386271
 30
0.0
 11
13.5980362654
 21
-17.2913320457
 31
0.0
  0
LINE
  5
331
330
1F
100
AcDbEntity
  8
0
  6
Continuous
 62
     7
370
    15
100
AcDbLine
 10
15.388259195
 20
-15.7005904919
 30
0.0
 11
15.645527264
 21
-15.4441263857
 31
0.0
  0
LINE
  5
332
330
1F
100
AcDbEntity
  8
0
  6
Continuous
 62
     7
370
    15
100
AcDbLine
 10
13.3543355764
 20
-15.6424300407
 30
0.0
 11
13.3578223655
 21
-15.6465542983
 31
0.0
  0
LINE
  5
333
330
1F
100
AcDbEntity
  8
0
  6
Continuous
 62
     7
370
    15
100
AcDbLine
 10
13.3543355764
 20
-15.6424300407
 30
0.0
 11
14.0170512091
 21
-16.0395676091
 31
0.0
  0
LINE
  5
334
330
1F
100
AcDbEntity
  8
0
  6
Continuous
 62
     7
370
    15
100
AcDbLine
 10
14.0170512091
 20
-16.0395676091
 30
0.0
 11
14.0140723655
 21
-16.0398172853
 31
0.0
  0
LINE
  5
335
330
1F
100
AcDbEntity
  8
0
  6
Continuous
 62
     7
370
    15
100
AcDbLine
 10
13.3578223655
 20
-15.6465542983
 30
0.0
 11
14.0140723655
 21
-16.0398172853
 31
0.0
  0
LINE
  5
336
330
1F
100
AcDbEntity
  8
0
  6
Continuous
 62
     7
370
    15
100
AcDbLine
 10
13.6374489888
 20
-16.3616517009
 30
0.0
 11
13.3578223655
 21
-15.6465542983
 31
0.0
  0
LINE
  5
337
330
1F
100
AcDbEntity
  8
0
  6
Continuous
 62
     7
370
    15
100
AcDbLine
 10
14.0140723655
 20
-16.0398172853
 30
0.0
 11
13.6374489888
 21
-16.3616517009
 31
0.0
  0
LINE
  5
338
330
1F
100
AcDbEntity
  8
0
  6
Continuous
 62
     7
370
    15
100
AcDbLine
 10
13.6367171911
 20
-16.3645728638
 30
0.0
 11
13.6374489888
 21
-16.3616517009
 31
0.0
  0
LINE
  5
339
330
1F
100
AcDbEntity
  8
0
  6
Continuous
 62
     7
370
    15
100
AcDbLine
 10
13.6367171911
 20
-16.3645728638
 30
0.0
 11
13.3543355764
 21
-15.6424300407
 31
0.0
  0
LINE
  5
33A
330
1F
100
AcDbEntity
  8
0
  6
Continuous
 62
     7
370
    15
100
AcDbLine
 10
12.6865048415
 20
-16.2362565415
 30
0.0
 11
12.6879225398
 21
-16.2352378601
 31
0.0
  0
LINE
  5
33B
330
1F
100
AcDbEntity
  8
0
  6
Continuous
 62
     7
370
    15
100
AcDbLine
 10
11.7863324929
 20
-16.1177509485
 30
0.0
 11
11.7853251372
 21
-16.1163255224
 31
0.0
  0
LINE
  5
33C
330
1F
100
AcDbEntity
  8
0
  6
Continuous
 62
     7
370
    15
100
AcDbLine
 10
14.0170512091
 20
-16.0395676091
 30
0.0
 11
13.6367171911
 21
-16.3645728638
 31
0.0
  0
LINE
  5
33D
330
1F
100
AcDbEntity
  8
0
  6
Continuous
 62
     7
370
    15
100
AcDbLine
 10
14.625898658
 20
-16.4134930522
 30
0.0
 11
14.6260853525
 21
-16.4156289736
 31
0.0
  0
LINE
  5
33E
330
1F
100
AcDbEntity
  8
0
  6
Continuous
 62
     7
370
    15
100
AcDbLine
 10
14.625898658
 20
-16.4134930522
 30
0.0
 11
14.931897715
 21
-16.1521272348
 31
0.0
  0
LINE
  5
33F
330
1F
100
AcDbEntity
  8
0
  6
Continuous
 62
     7
370
    15
100
AcDbLine
 10
11.7863324929
 20
-16.1177509485
 30
0.0
 11
11.1562683127
 21
-16.5720774332
 31
0.0
  0
LINE
  5
340
330
1F
100
AcDbEntity
  8
0
  6
Continuous
 62
     7
370
    15
100
AcDbLine
 10
11.1562683127
 20
-16.5720774332
 30
0.0
 11
11.1538316307
 21
-16.5716826653
 31
0.0
  0
LINE
  5
341
330
1F
100
AcDbEntity
  8
0
  6
Continuous
 62
     7
370
    15
100
AcDbLine
 10
14.3146163372
 20
-16.2300515802
 30
0.0
 11
14.314802885
 21
-16.2321874152
 31
0.0
  0
LINE
  5
342
330
1F
100
AcDbEntity
  8
0
  6
Continuous
 62
     7
370
    15
100
AcDbLine
 10
14.3146163372
 20
-16.2300515802
 30
0.0
 11
14.625898658
 21
-16.4134930522
 31
0.0
  0
LINE
  5
343
330
1F
100
AcDbEntity
  8
0
  6
Continuous
 62
     7
370
    15
100
AcDbLine
 10
13.7737690125
 20
-16.6918895819
 30
0.0
 11
13.775841846
 21
-16.6924146879
 31
0.0
  0
LINE
  5
344
330
1F
100
AcDbEntity
  8
0
  6
Continuous
 62
     7
370
    15
100
AcDbLine
 10
13.7737690125
 20
-16.6918895819
 30
0.0
 11
14.3146163372
 21
-16.2300515802
 31
0.0
  0
LINE
  5
345
330
1F
100
AcDbEntity
  8
0
  6
Continuous
 62
     7
370
    15
100
AcDbLine
 10
12.5107508
 20
-17.1307482234
 30
0.0
 11
12.5117861762
 21
-17.1321534445
 31
0.0
  0
LINE
  5
346
330
1F
100
AcDbEntity
  8
0
  6
Continuous
 62
     7
370
    15
100
AcDbLine
 10
11.1562683127
 20
-16.5720774332
 30
0.0
 11
12.3344209805
 21
-18.2056096052
 31
0.0
  0
LINE
  5
347
330
1F
100
AcDbEntity
  8
0
  6
Continuous
 62
     7
370
    15
100
AcDbLine
 10
12.0085506964
 20
-17.102528442
 30
0.0
 11
11.6505834429
 21
-16.6061907222
 31
0.0
  0
LINE
  5
348
330
1F
100
AcDbEntity
  8
0
  6
Continuous
 62
     7
370
    15
100
AcDbLine
 10
13.9040450474
 20
-17.0299579218
 30
0.0
 11
13.90611782
 21
-17.0304828697
 31
0.0
  0
LINE
  5
349
330
1F
100
AcDbEntity
  8
0
  6
Continuous
 62
     7
370
    15
100
AcDbLine
 10
13.9040450474
 20
-17.0299579218
 30
0.0
 11
13.7737690125
 21
-16.6918895819
 31
0.0
  0
LINE
  5
34A
330
1F
100
AcDbEntity
  8
0
  6
Continuous
 62
     7
370
    15
100
AcDbLine
 10
13.5980362654
 20
-17.2913320457
 30
0.0
 11
13.9040450474
 21
-17.0299579218
 31
0.0
  0
LINE
  5
34B
330
1F
100
AcDbEntity
  8
0
  6
Continuous
 62
     7
370
    15
100
AcDbLine
 10
12.1936026255
 20
-17.3594373313
 30
0.0
 11
12.196039423
 21
-17.3598320159
 31
0.0
  0
LINE
  5
34C
330
1F
100
AcDbEntity
  8
0
  6
Continuous
 62
     7
370
    15
100
AcDbLine
 10
12.1936026255
 20
-17.3594373313
 30
0.0
 11
12.5107508
 21
-17.1307482234
 31
0.0
  0
LINE
  5
34D
330
1F
100
AcDbEntity
  8
0
  6
Continuous
 62
     7
370
    15
100
AcDbLine
 10
12.6432781345
 20
-17.9828142102
 30
0.0
 11
12.6457147476
 21
-17.9832086393
 31
0.0
  0
LINE
  5
34E
330
1F
100
AcDbEntity
  8
0
  6
Continuous
 62
     7
370
    15
100
AcDbLine
 10
12.6432781345
 20
-17.9828142102
 30
0.0
 11
12.1936026255
 21
-17.3594373313
 31
0.0
  0
LINE
  5
34F
330
1F
100
AcDbEntity
  8
0
  6
Continuous
 62
     7
370
    15
100
AcDbLine
 10
10.0255146038
 20
-17.6379306905
 30
0.0
 11
10.0278809301
 21
-17.6386320412
 31
0.0
  0
LINE
  5
350
330
1F
100
AcDbEntity
  8
0
  6
Continuous
 62
     7
370
    15
100
AcDbLine
 10
10.0255146038
 20
-17.6379306905
 30
0.0
 11
9.8721470331
 21
-17.3552846965
 31
0.0
  0
LINE
  5
351
330
1F
100
AcDbEntity
  8
0
  6
Continuous
 62
     7
370
    15
100
AcDbLine
 10
9.8721470331
 20
-17.3552846965
 30
0.0
 11
9.8728484626
 21
-17.3529177555
 31
0.0
  0
LINE
  5
352
330
1F
100
AcDbEntity
  8
0
  6
Continuous
 62
     7
370
    15
100
AcDbLine
 10
9.8721470331
 20
-17.3552846965
 30
0.0
 11
8.6195329038
 21
-18.0354371648
 31
0.0
  0
LINE
  5
353
330
1F
100
AcDbEntity
  8
0
  6
Continuous
 62
     7
370
    15
100
AcDbLine
 10
9.5665043616
 20
-17.8871192747
 30
0.0
 11
10.0255146038
 21
-17.6379306905
 31
0.0
  0
LINE
  5
354
330
1F
100
AcDbEntity
  8
0
  6
Continuous
 62
     7
370
    15
100
AcDbLine
 10
12.3344209805
 20
-18.2056096052
 30
0.0
 11
12.6432781345
 21
-17.9828142102
 31
0.0
  0
LINE
  5
355
330
1F
100
AcDbEntity
  8
0
  6
Continuous
 62
     7
370
    15
100
AcDbLine
 10
-11.1131563191
 20
-17.5728892831
 30
0.0
 11
-11.1167906535
 21
-17.5763887091
 31
0.0
  0
LINE
  5
356
330
1F
100
AcDbEntity
  8
0
  6
Continuous
 62
     7
370
    15
100
AcDbLine
 10
9.2319098465
 20
-18.0688953662
 30
0.0
 11
9.2312088522
 21
-18.0712619114
 31
0.0
  0
LINE
  5
357
330
1F
100
AcDbEntity
  8
0
  6
Continuous
 62
     7
370
    15
100
AcDbLine
 10
9.2319098465
 20
-18.0688953662
 30
0.0
 11
10.0358868704
 21
-19.5494143885
 31
0.0
  0
LINE
  5
358
330
1F
100
AcDbEntity
  8
0
  6
Continuous
 62
     7
370
    15
100
AcDbLine
 10
8.6195329038
 20
-18.0354371648
 30
0.0
 11
8.7729006082
 21
-18.3180834054
 31
0.0
  0
LINE
  5
359
330
1F
100
AcDbEntity
  8
0
  6
Continuous
 62
     7
370
    15
100
AcDbLine
 10
8.7729006082
 20
-18.3180834054
 30
0.0
 11
8.7721991119
 21
-18.3204502231
 31
0.0
  0
LINE
  5
35A
330
1F
100
AcDbEntity
  8
0
  6
Continuous
 62
     7
370
    15
100
AcDbLine
 10
8.7729006082
 20
-18.3180834054
 30
0.0
 11
9.2319098465
 21
-18.0688953662
 31
0.0
  0
LINE
  5
35B
330
1F
100
AcDbEntity
  8
0
  6
Continuous
 62
     7
370
    15
100
AcDbLine
 10
9.254076982
 20
-19.9474743606
 30
0.0
 11
9.2563643922
 21
-19.9484035388
 31
0.0
  0
LINE
  5
35C
330
1F
100
AcDbEntity
  8
0
  6
Continuous
 62
     7
370
    15
100
AcDbLine
 10
9.254076982
 20
-19.9474743606
 30
0.0
 11
8.4871726218
 21
-18.1325078873
 31
0.0
  0
LINE
  5
35D
330
1F
100
AcDbEntity
  8
0
  6
Continuous
 62
     7
370
    15
100
AcDbLine
 10
8.4871726218
 20
-18.1325078873
 30
0.0
 11
8.1527265141
 21
-18.273602339
 31
0.0
  0
LINE
  5
35E
330
1F
100
AcDbEntity
  8
0
  6
Continuous
 62
     7
370
    15
100
AcDbLine
 10
8.1527265141
 20
-18.273602339
 30
0.0
 11
8.1504390675
 21
-18.2726730193
 31
0.0
  0
LINE
  5
35F
330
1F
100
AcDbEntity
  8
0
  6
Continuous
 62
     7
370
    15
100
AcDbLine
 10
8.1527265141
 20
-18.273602339
 30
0.0
 11
8.6246699004
 21
-19.3905485932
 31
0.0
  0
LINE
  5
360
330
1F
100
AcDbEntity
  8
0
  6
Continuous
 62
     7
370
    15
100
AcDbLine
 10
11.4316940368
 20
-18.7913415868
 30
0.0
 11
11.4340868874
 21
-18.7919473293
 31
0.0
  0
LINE
  5
361
330
1F
100
AcDbEntity
  8
0
  6
Continuous
 62
     7
370
    15
100
AcDbLine
 10
11.4316940368
 20
-18.7913415868
 30
0.0
 11
11.2167603656
 21
-18.4307038162
 31
0.0
  0
LINE
  5
362
330
1F
100
AcDbEntity
  8
0
  6
Continuous
 62
     7
370
    15
100
AcDbLine
 10
11.2167603656
 20
-18.4307038162
 30
0.0
 11
11.2173661081
 21
-18.4283109657
 31
0.0
  0
LINE
  5
363
330
1F
100
AcDbEntity
  8
0
  6
Continuous
 62
     7
370
    15
100
AcDbLine
 10
11.2167603656
 20
-18.4307038162
 30
0.0
 11
10.856122595
 21
-18.6456374875
 31
0.0
  0
LINE
  5
364
330
1F
100
AcDbEntity
  8
0
  6
Continuous
 62
     7
370
    15
100
AcDbLine
 10
10.856122595
 20
-18.6456374875
 30
0.0
 11
10.8537297445
 21
-18.6450317449
 31
0.0
  0
LINE
  5
365
330
1F
100
AcDbEntity
  8
0
  6
Continuous
 62
     7
370
    15
100
AcDbLine
 10
10.856122595
 20
-18.6456374875
 30
0.0
 11
11.0710562663
 21
-19.006275258
 31
0.0
  0
LINE
  5
366
330
1F
100
AcDbEntity
  8
0
  6
Continuous
 62
     7
370
    15
100
AcDbLine
 10
11.0710562663
 20
-19.006275258
 30
0.0
 11
11.0704505237
 21
-19.0086681086
 31
0.0
  0
LINE
  5
367
330
1F
100
AcDbEntity
  8
0
  6
Continuous
 62
     7
370
    15
100
AcDbLine
 10
8.6246699004
 20
-19.3905485932
 30
0.0
 11
7.4104030553
 21
-18.5871453453
 31
0.0
  0
LINE
  5
368
330
1F
100
AcDbEntity
  8
0
  6
Continuous
 62
     7
370
    15
100
AcDbLine
 10
7.4104030553
 20
-18.5871453453
 30
0.0
 11
7.0877906932
 21
-18.7236816634
 31
0.0
  0
LINE
  5
369
330
1F
100
AcDbEntity
  8
0
  6
Continuous
 62
     7
370
    15
100
AcDbLine
 10
7.0877906932
 20
-18.7236816634
 30
0.0
 11
7.0855040026
 21
-18.7227541881
 31
0.0
  0
LINE
  5
36A
330
1F
100
AcDbEntity
  8
0
  6
Continuous
 62
     7
370
    15
100
AcDbLine
 10
11.0710562663
 20
-19.006275258
 30
0.0
 11
11.4316940368
 21
-18.7913415868
 31
0.0
  0
LINE
  5
36B
330
1F
100
AcDbEntity
  8
0
  6
Continuous
 62
     7
370
    15
100
AcDbLine
 10
7.0877906932
 20
-18.7236816634
 30
0.0
 11
7.8546950802
 21
-20.5386481999
 31
0.0
  0
LINE
  5
36C
330
1F
100
AcDbEntity
  8
0
  6
Continuous
 62
     7
370
    15
100
AcDbLine
 10
7.4347461399
 20
-20.7005420421
 30
0.0
 11
7.4369684479
 21
-20.7016163656
 31
0.0
  0
LINE
  5
36D
330
1F
100
AcDbEntity
  8
0
  6
Continuous
 62
     7
370
    15
100
AcDbLine
 10
7.4347461399
 20
-20.7005420421
 30
0.0
 11
6.7755857122
 21
-18.8077347169
 31
0.0
  0
LINE
  5
36E
330
1F
100
AcDbEntity
  8
0
  6
Continuous
 62
     7
370
    15
100
AcDbLine
 10
6.7755857122
 20
-18.8077347169
 30
0.0
 11
6.4152459508
 21
-18.9332101696
 31
0.0
  0
LINE
  5
36F
330
1F
100
AcDbEntity
  8
0
  6
Continuous
 62
     7
370
    15
100
AcDbLine
 10
6.4152459508
 20
-18.9332101696
 30
0.0
 11
6.4130236427
 21
-18.9321358461
 31
0.0
  0
LINE
  5
370
330
1F
100
AcDbEntity
  8
0
  6
Continuous
 62
     7
370
    15
100
AcDbLine
 10
6.4152459508
 20
-18.9332101696
 30
0.0
 11
7.0744063784
 21
-20.8260174948
 31
0.0
  0
LINE
  5
371
330
1F
100
AcDbEntity
  8
0
  6
Continuous
 62
     7
370
    15
100
AcDbLine
 10
7.7159760925
 20
-19.27735105
 30
0.0
 11
8.9314675408
 21
-20.0836066841
 31
0.0
  0
LINE
  5
372
330
1F
100
AcDbEntity
  8
0
  6
Continuous
 62
     7
370
    15
100
AcDbLine
 10
10.0358868704
 20
-19.5494143885
 30
0.0
 11
10.3704818831
 21
-19.3676392134
 31
0.0
  0
LINE
  5
373
330
1F
100
AcDbEntity
  8
0
  6
Continuous
 62
     7
370
    15
100
AcDbLine
 10
8.9314675408
 20
-20.0836066841
 30
0.0
 11
9.254076982
 21
-19.9474743606
 31
0.0
  0
LINE
  5
374
330
1F
100
AcDbEntity
  8
0
  6
Continuous
 62
     7
370
    15
100
AcDbLine
 10
7.8546950802
 20
-20.5386481999
 30
0.0
 11
8.1891425526
 21
-20.3971511923
 31
0.0
  0
LINE
  5
375
330
1F
100
AcDbEntity
  8
0
  6
Continuous
 62
     7
370
    15
100
AcDbLine
 10
7.0744063784
 20
-20.8260174948
 30
0.0
 11
7.4347461399
 21
-20.7005420421
 31
0.0
  0
LINE
  5
376
330
1F
100
AcDbEntity
  8
0
  6
PHANTOM
 62
     7
370
     0
100
AcDbLine
 10
12.314358984
 20
-16.8819387305
 30
0.0
 11
12.313328384
 21
-16.8805300679
 31
0.0
  0
LINE
  5
377
330
1F
100
AcDbEntity
  8
0
  6
PHANTOM
 62
     7
370
     0
100
AcDbLine
 10
19.5160270904
 20
-7.6917870089
 30
0.0
 11
19.5153507126
 21
-7.6933960152
 31
0.0
  0
LINE
  5
378
330
1F
100
AcDbEntity
  8
0
  6
PHANTOM
 62
     7
370
     0
100
AcDbLine
 10
18.4605437551
 20
-7.6551200384
 30
0.0
 11
18.4589383749
 21
-7.6544349762
 31
0.0
  0
LINE
  5
379
330
1F
100
AcDbEntity
  8
0
  6
PHANTOM
 62
     7
370
     0
100
AcDbLine
 10
19.6551041844
 20
-7.3573459104
 30
0.0
 11
19.6557727905
 21
-7.3557336775
 31
0.0
  0
LINE
  5
37A
330
1F
100
AcDbEntity
  8
0
  6
PHANTOM
 62
     7
370
     0
100
AcDbLine
 10
19.8620655911
 20
-7.4437827007
 30
0.0
 11
19.86275331
 21
-7.4421784827
 31
0.0
  0
ARC
  5
37B
330
1F
100
AcDbEntity
  8
0
  6
Continuous
 62
     7
370
    15
100
AcDbCircle
 10
0.0
 20
3.0
 30
0.0
 40
19.99999999999988
100
AcDbArc
 50
244.9397206711
 51
295.0602793289
  0
ARC
  5
37C
330
1F
100
AcDbEntity
  8
0
  6
Continuous
 62
     7
370
    15
100
AcDbCircle
 10
0.0
 20
-3.0
 30
0.0
 40
19.99999999999991
100
AcDbArc
 50
64.9397206711
 51
115.0602793289
  0
ARC
  5
37D
330
1F
100
AcDbEntity
  8
0
  6
Continuous
 62
     7
370
    15
100
AcDbCircle
 10
20.225
 20
10.8467449034
 30
0.0
 40
1.999999999999905
100
AcDbArc
 50
0.0
 51
28.2048295913
  0
ARC
  5
37E
330
1F
100
AcDbEntity
  8
0
  6
Continuous
 62
     7
370
    15
100
AcDbCircle
 10
21.975
 20
1.0103629711
 30
0.0
 40
0.2500000000000158
100
AcDbArc
 50
300.0
 51
360.0
  0
ARC
  5
37F
330
1F
100
AcDbEntity
  8
0
  6
Continuous
 62
     7
370
    15
100
AcDbCircle
 10
21.225
 20
0.0
 30
0.0
 40
0.2499999999999991
100
AcDbArc
 50
120.0
 51
240.0
  0
ARC
  5
380
330
1F
100
AcDbEntity
  8
0
  6
Continuous
 62
     7
370
    15
100
AcDbCircle
 10
21.975
 20
-1.0103629711
 30
0.0
 40
0.2499999999999864
100
AcDbArc
 50
0.0
 51
60.0
  0
ARC
  5
381
330
1F
100
AcDbEntity
  8
0
  6
Continuous
 62
     7
370
    15
100
AcDbCircle
 10
20.225
 20
-10.8467449034
 30
0.0
 40
2.000000000000107
100
AcDbArc
 50
331.7951704087
 51
0.0
  0
ARC
  5
382
330
1F
100
AcDbEntity
  8
0
  6
Continuous
 62
     7
370
    15
100
AcDbCircle
 10
0.0
 20
0.0
 30
0.0
 40
24.95000000000039
100
AcDbArc
 50
298.2048295913
 51
331.7951704087
  0
ARC
  5
383
330
1F
100
AcDbEntity
  8
0
  6
Continuous
 62
     7
370
    15
100
AcDbCircle
 10
10.8467449034
 20
-20.225
 30
0.0
 40
1.999999999999934
100
AcDbArc
 50
270.0
 51
298.2048295913
  0
ARC
  5
384
330
1F
100
AcDbEntity
  8
0
  6
Continuous
 62
     7
370
    15
100
AcDbCircle
 10
1.0103629711
 20
-21.975
 30
0.0
 40
0.2500000000000038
100
AcDbArc
 50
210.0
 51
270.0
  0
ARC
  5
385
330
1F
100
AcDbEntity
  8
0
  6
Continuous
 62
     7
370
    15
100
AcDbCircle
 10
0.0
 20
-21.225
 30
0.0
 40
0.2499999999999973
100
AcDbArc
 50
30.0
 51
150.0
  0
ARC
  5
386
330
1F
100
AcDbEntity
  8
0
  6
Continuous
 62
     7
370
    15
100
AcDbCircle
 10
-1.0103629711
 20
-21.975
 30
0.0
 40
0.2500000000000001
100
AcDbArc
 50
270.0
 51
330.0
  0
ARC
  5
387
330
1F
100
AcDbEntity
  8
0
  6
Continuous
 62
     7
370
    15
100
AcDbCircle
 10
-10.8467449034
 20
-20.225
 30
0.0
 40
2.000000000000086
100
AcDbArc
 50
241.7951704087
 51
270.0
  0
ARC
  5
388
330
1F
100
AcDbEntity
  8
0
  6
Continuous
 62
     7
370
    15
100
AcDbCircle
 10
0.0
 20
0.0
 30
0.0
 40
24.95000000000032
100
AcDbArc
 50
208.2048295913
 51
241.7951704087
  0
ARC
  5
389
330
1F
100
AcDbEntity
  8
0
  6
Continuous
 62
     7
370
    15
100
AcDbCircle
 10
-20.225
 20
-10.8467449034
 30
0.0
 40
1.999999999999993
100
AcDbArc
 50
180.0
 51
208.2048295913
  0
ARC
  5
38A
330
1F
100
AcDbEntity
  8
0
  6
Continuous
 62
     7
370
    15
100
AcDbCircle
 10
-21.975
 20
-1.0103629711
 30
0.0
 40
0.2500000000000142
100
AcDbArc
 50
120.0
 51
180.0
  0
ARC
  5
38B
330
1F
100
AcDbEntity
  8
0
  6
Continuous
 62
     7
370
    15
100
AcDbCircle
 10
-21.225
 20
0.0
 30
0.0
 40
0.2499999999999996
100
AcDbArc
 50
300.0
 51
60.0
  0
ARC
  5
38C
330
1F
100
AcDbEntity
  8
0
  6
Continuous
 62
     7
370
    15
100
AcDbCircle
 10
-21.975
 20
1.0103629711
 30
0.0
 40
0.2500000000000071
100
AcDbArc
 50
180.0
 51
240.0
  0
ARC
  5
38D
330
1F
100
AcDbEntity
  8
0
  6
Continuous
 62
     7
370
    15
100
AcDbCircle
 10
-20.225
 20
10.8467449034
 30
0.0
 40
2.000000000000039
100
AcDbArc
 50
151.7951704087
 51
180.0
  0
ARC
  5
38E
330
1F
100
AcDbEntity
  8
0
  6
Continuous
 62
     7
370
    15
100
AcDbCircle
 10
0.0
 20
0.0
 30
0.0
 40
24.95000000000047
100
AcDbArc
 50
118.2048295913
 51
151.7951704087
  0
ARC
  5
38F
330
1F
100
AcDbEntity
  8
0
  6
Continuous
 62
     7
370
    15
100
AcDbCircle
 10
-10.8467449034
 20
20.225
 30
0.0
 40
2.000000000000153
100
AcDbArc
 50
90.0
 51
118.2048295913
  0
ARC
  5
390
330
1F
100
AcDbEntity
  8
0
  6
Continuous
 62
     7
370
    15
100
AcDbCircle
 10
-1.0103629711
 20
21.975
 30
0.0
 40
0.2500000000000036
100
AcDbArc
 50
30.0
 51
90.0
  0
ARC
  5
391
330
1F
100
AcDbEntity
  8
0
  6
Continuous
 62
     7
370
    15
100
AcDbCircle
 10
0.0
 20
21.225
 30
0.0
 40
0.2499999999999976
100
AcDbArc
 50
210.0
 51
330.0
  0
ARC
  5
392
330
1F
100
AcDbEntity
  8
0
  6
Continuous
 62
     7
370
    15
100
AcDbCircle
 10
1.0103629711
 20
21.975
 30
0.0
 40
0.2500000000000045
100
AcDbArc
 50
90.0
 51
150.0
  0
ARC
  5
393
330
1F
100
AcDbEntity
  8
0
  6
Continuous
 62
     7
370
    15
100
AcDbCircle
 10
10.8467449034
 20
20.225
 30
0.0
 40
2.000000000000128
100
AcDbArc
 50
61.7951704087
 51
90.0
  0
ARC
  5
394
330
1F
100
AcDbEntity
  8
0
  6
Continuous
 62
     7
370
    15
100
AcDbCircle
 10
0.0
 20
0.0
 30
0.0
 40
24.95000000000037
100
AcDbArc
 50
28.2048295913
 51
61.7951704087
  0
ENDSEC
  0
SECTION
  2
OBJECTS
  0
DICTIONARY
  5
C
330
0
100
AcDbDictionary
281
     1
  3
ACAD_GROUP
350
D
  3
ACAD_LAYOUT
350
1A
  3
ACAD_MLEADERSTYLE
350
3B9
  3
ACAD_MLINESTYLE
350
17
  3
ACAD_PLOTSETTINGS
350
19
  3
ACAD_PLOTSTYLENAME
350
E
  3
ACAD_SCALELIST
350
395
  3
ACAD_VISUALSTYLE
350
2A
  3
AcDbVariableDictionary
350
3B7
  0
DICTIONARY
  5
D
102
{ACAD_REACTORS
330
C
102
}
330
C
100
AcDbDictionary
281
     1
  0
DICTIONARY
  5
1A
102
{ACAD_REACTORS
330
C
102
}
330
C
100
AcDbDictionary
281
     1
  3
Layout1
350
1E
  3
Layout2
350
26
  3
Model
350
22
  0
DICTIONARY
  5
3B9
102
{ACAD_REACTORS
330
C
102
}
330
C
100
AcDbDictionary
281
     1
  0
DICTIONARY
  5
17
102
{ACAD_REACTORS
330
C
102
}
330
C
100
AcDbDictionary
281
     1
  3
Standard
350
18
  0
DICTIONARY
  5
19
102
{ACAD_REACTORS
330
C
102
}
330
C
100
AcDbDictionary
281
     1
  0
ACDBDICTIONARYWDFLT
  5
E
102
{ACAD_REACTORS
330
C
102
}
330
C
100
AcDbDictionary
281
     1
  3
Normal
350
F
100
AcDbDictionaryWithDefault
340
F
  0
DICTIONARY
  5
395
102
{ACAD_REACTORS
330
C
102
}
330
C
100
AcDbDictionary
281
     1
  3
A0
350
396
  3
A1
350
397
  3
A2
350
398
  3
A3
350
399
  3
A4
350
39A
  3
A5
350
39B
  3
A6
350
39C
  3
A7
350
39D
  3
A8
350
39E
  3
A9
350
39F
  3
B0
350
3A0
  3
B1
350
3A1
  3
B2
350
3A2
  3
B3
350
3A3
  3
B4
350
3A4
  3
B5
350
3A5
  3
B6
350
3A6
  3
B7
350
3A7
  3
B8
350
3A8
  3
B9
350
3A9
  3
C0
350
3AA
  3
C1
350
3AB
  3
C2
350
3AC
  3
C3
350
3AD
  3
C4
350
3AE
  3
C5
350
3AF
  3
C6
350
3B0
  3
C7
350
3B1
  3
C8
350
3B2
  3
C9
350
3B3
  3
D0
350
3B4
  3
D1
350
3B5
  3
D2
350
3B6
  0
DICTIONARY
  5
2A
102
{ACAD_REACTORS
330
C
102
}
330
C
100
AcDbDictionary
281
     1
  3
2dWireframe
350
2F
  3
3D Hidden
350
31
  3
3dWireframe
350
30
  3
Basic
350
32
  3
Brighten
350
36
  3
ColorChange
350
3A
  3
Conceptual
350
34
  3
Dim
350
35
  3
Facepattern
350
39
  3
Flat
350
2B
  3
FlatWithEdges
350
2C
  3
Gouraud
350
2D
  3
GouraudWithEdges
350
2E
  3
Linepattern
350
38
  3
Realistic
350
33
  3
Thicken
350
37
  0
DICTIONARY
  5
3B7
102
{ACAD_REACTORS
330
C
102
}
330
C
100
AcDbDictionary
281
     1
  3
CANNOSCALE
350
3BC
  3
DIMASSOC
350
3BD
  3
HIDETEXT
350
3BE
  3
PSOLHEIGHT
350
3BB
  3
PSOLWIDTH
350
3BA
  0
LAYOUT
  5
1E
102
{ACAD_REACTORS
330
1A
102
}
330
1A
100
AcDbPlotSettings
  1

  2
none_device
  4

  6

 40
0.0
 41
0.0
 42
0.0
 43
0.0
 44
0.0
 45
0.0
 46
0.0
 47
0.0
 48
0.0
 49
0.0
140
0.0
141
0.0
142
1.0
143
1.0
 70
   688
 72
     0
 73
     0
 74
     5
  7

 75
    16
147
1.0
148
0.0
149
0.0
100
AcDbLayout
  1
Layout1
 70
     1
 71
     1
 10
0.0
 20
0.0
 11
420.0
 21
297.0
 12
0.0
 22
0.0
 32
0.0
 14
1.0000000000E+20
 24
1.0000000000E+20
 34
1.0000000000E+20
 15
-1.0000000000E+20
 25
-1.0000000000E+20
 35
-1.0000000000E+20
146
0.0
 13
0.0
 23
0.0
 33
0.0
 16
1.0
 26
0.0
 36
0.0
 17
0.0
 27
1.0
 37
0.0
 76
     0
330
1B
  0
LAYOUT
  5
26
102
{ACAD_REACTORS
330
1A
102
}
330
1A
100
AcDbPlotSettings
  1

  2
none_device
  4

  6

 40
0.0
 41
0.0
 42
0.0
 43
0.0
 44
0.0
 45
0.0
 46
0.0
 47
0.0
 48
0.0
 49
0.0
140
0.0
141
0.0
142
1.0
143
1.0
 70
   688
 72
     0
 73
     0
 74
     5
  7

 75
    16
147
1.0
148
0.0
149
0.0
100
AcDbLayout
  1
Layout2
 70
     1
 71
     2
 10
0.0
 20
0.0
 11
0.0
 21
0.0
 12
0.0
 22
0.0
 32
0.0
 14
0.0
 24
0.0
 34
0.0
 15
0.0
 25
0.0
 35
0.0
146
0.0
 13
0.0
 23
0.0
 33
0.0
 16
1.0
 26
0.0
 36
0.0
 17
0.0
 27
1.0
 37
0.0
 76
     0
330
23
  0
LAYOUT
  5
22
102
{ACAD_REACTORS
330
1A
102
}
330
1A
100
AcDbPlotSettings
  1

  2
none_device
  4
ANSI_A_(11.00_x_8.50_Inches)
  6

 40
6.35
 41
19.05
 42
6.35000508
 43
19.05000254
 44
279.4
 45
215.9
 46
133.34999746
 47
88.89999873
 48
0.0
 49
0.0
140
0.0
141
0.0
142
0.1893138358
143
1.0
 70
  1696
 72
     0
 73
     0
 74
     0
  7

 75
     0
147
0.0179189148
148
0.0
149
0.0
100
AcDbLayout
  1
Model
 70
     1
 71
     0
 10
0.0
 20
0.0
 11
420.0
 21
297.0
 12
0.0
 22
0.0
 32
0.0
 14
-22.225
 24
-22.225
 34
0.0
 15
22.225
 25
22.225
 35
0.0
146
0.0
 13
0.0
 23
0.0
 33
0.0
 16
1.0
 26
0.0
 36
0.0
 17
0.0
 27
1.0
 37
0.0
 76
     0
330
1F
331
29
  0
MLINESTYLE
  5
18
102
{ACAD_REACTORS
330
17
102
}
330
17
100
AcDbMlineStyle
  2
Standard
 70
     0
  3

 62
   256
 51
90.0
 52
90.0
 71
     2
 49
0.5
 62
   256
  6
BYLAYER
 49
-0.5
 62
   256
  6
BYLAYER
  0
ACDBPLACEHOLDER
  5
F
102
{ACAD_REACTORS
330
E
102
}
330
E
  0
SCALE
  5
396
102
{ACAD_REACTORS
330
395
102
}
330
395
100
AcDbScale
 70
     0
300
1:1
140
1.0
141
1.0
290
     1
  0
SCALE
  5
397
102
{ACAD_REACTORS
330
395
102
}
330
395
100
AcDbScale
 70
     0
300
1:2
140
1.0
141
2.0
290
     0
  0
SCALE
  5
398
102
{ACAD_REACTORS
330
395
102
}
330
395
100
AcDbScale
 70
     0
300
1:4
140
1.0
141
4.0
290
     0
  0
SCALE
  5
399
102
{ACAD_REACTORS
330
395
102
}
330
395
100
AcDbScale
 70
     0
300
1:5
140
1.0
141
5.0
290
     0
  0
SCALE
  5
39A
102
{ACAD_REACTORS
330
395
102
}
330
395
100
AcDbScale
 70
     0
300
1:8
140
1.0
141
8.0
290
     0
  0
SCALE
  5
39B
102
{ACAD_REACTORS
330
395
102
}
330
395
100
AcDbScale
 70
     0
300
1:10
140
1.0
141
10.0
290
     0
  0
SCALE
  5
39C
102
{ACAD_REACTORS
330
395
102
}
330
395
100
AcDbScale
 70
     0
300
1:16
140
1.0
141
16.0
290
     0
  0
SCALE
  5
39D
102
{ACAD_REACTORS
330
395
102
}
330
395
100
AcDbScale
 70
     0
300
1:20
140
1.0
141
20.0
290
     0
  0
SCALE
  5
39E
102
{ACAD_REACTORS
330
395
102
}
330
395
100
AcDbScale
 70
     0
300
1:30
140
1.0
141
30.0
290
     0
  0
SCALE
  5
39F
102
{ACAD_REACTORS
330
395
102
}
330
395
100
AcDbScale
 70
     0
300
1:40
140
1.0
141
40.0
290
     0
  0
SCALE
  5
3A0
102
{ACAD_REACTORS
330
395
102
}
330
395
100
AcDbScale
 70
     0
300
1:50
140
1.0
141
50.0
290
     0
  0
SCALE
  5
3A1
102
{ACAD_REACTORS
330
395
102
}
330
395
100
AcDbScale
 70
     0
300
1:100
140
1.0
141
100.0
290
     0
  0
SCALE
  5
3A2
102
{ACAD_REACTORS
330
395
102
}
330
395
100
AcDbScale
 70
     0
300
2:1
140
2.0
141
1.0
290
     0
  0
SCALE
  5
3A3
102
{ACAD_REACTORS
330
395
102
}
330
395
100
AcDbScale
 70
     0
300
4:1
140
4.0
141
1.0
290
     0
  0
SCALE
  5
3A4
102
{ACAD_REACTORS
330
395
102
}
330
395
100
AcDbScale
 70
     0
300
8:1
140
8.0
141
1.0
290
     0
  0
SCALE
  5
3A5
102
{ACAD_REACTORS
330
395
102
}
330
395
100
AcDbScale
 70
     0
300
10:1
140
10.0
141
1.0
290
     0
  0
SCALE
  5
3A6
102
{ACAD_REACTORS
330
395
102
}
330
395
100
AcDbScale
 70
     0
300
100:1
140
100.0
141
1.0
290
     0
  0
SCALE
  5
3A7
102
{ACAD_REACTORS
330
395
102
}
330
395
100
AcDbScale
 70
     0
300
1/128" = 1'-0"
140
0.0078125
141
12.0
290
     0
  0
SCALE
  5
3A8
102
{ACAD_REACTORS
330
395
102
}
330
395
100
AcDbScale
 70
     0
300
1/64" = 1'-0"
140
0.015625
141
12.0
290
     0
  0
SCALE
  5
3A9
102
{ACAD_REACTORS
330
395
102
}
330
395
100
AcDbScale
 70
     0
300
1/32" = 1'-0"
140
0.03125
141
12.0
290
     0
  0
SCALE
  5
3AA
102
{ACAD_REACTORS
330
395
102
}
330
395
100
AcDbScale
 70
     0
300
1/16" = 1'-0"
140
0.0625
141
12.0
290
     0
  0
SCALE
  5
3AB
102
{ACAD_REACTORS
330
395
102
}
330
395
100
AcDbScale
 70
     0
300
3/32" = 1'-0"
140
0.09375
141
12.0
290
     0
  0
SCALE
  5
3AC
102
{ACAD_REACTORS
330
395
102
}
330
395
100
AcDbScale
 70
     0
300
1/8" = 1'-0"
140
0.125
141
12.0
290
     0
  0
SCALE
  5
3AD
102
{ACAD_REACTORS
330
395
102
}
330
395
100
AcDbScale
 70
     0
300
3/16" = 1'-0"
140
0.1875
141
12.0
290
     0
  0
SCALE
  5
3AE
102
{ACAD_REACTORS
330
395
102
}
330
395
100
AcDbScale
 70
     0
300
1/4" = 1'-0"
140
0.25
141
12.0
290
     0
  0
SCALE
  5
3AF
102
{ACAD_REACTORS
330
395
102
}
330
395
100
AcDbScale
 70
     0
300
3/8" = 1'-0"
140
0.375
141
12.0
290
     0
  0
SCALE
  5
3B0
102
{ACAD_REACTORS
330
395
102
}
330
395
100
AcDbScale
 70
     0
300
1/2" = 1'-0"
140
0.5
141
12.0
290
     0
  0
SCALE
  5
3B1
102
{ACAD_REACTORS
330
395
102
}
330
395
100
AcDbScale
 70
     0
300
3/4" = 1'-0"
140
0.75
141
12.0
290
     0
  0
SCALE
  5
3B2
102
{ACAD_REACTORS
330
395
102
}
330
395
100
AcDbScale
 70
     0
300
1" = 1'-0"
140
1.0
141
12.0
290
     0
  0
SCALE
  5
3B3
102
{ACAD_REACTORS
330
395
102
}
330
395
100
AcDbScale
 70
     0
300
1-1/2" = 1'-0"
140
1.5
141
12.0
290
     0
  0
SCALE
  5
3B4
102
{ACAD_REACTORS
330
395
102
}
330
395
100
AcDbScale
 70
     0
300
3" = 1'-0"
140
3.0
141
12.0
290
     0
  0
SCALE
  5
3B5
102
{ACAD_REACTORS
330
395
102
}
330
395
100
AcDbScale
 70
     0
300
6" = 1'-0"
140
6.0
141
12.0
290
     0
  0
SCALE
  5
3B6
102
{ACAD_REACTORS
330
395
102
}
330
395
100
AcDbScale
 70
     0
300
1'-0" = 1'-0"
140
12.0
141
12.0
290
     0
  0
VISUALSTYLE
  5
2F
102
{ACAD_REACTORS
330
2A
102
}
330
2A
100
AcDbVisualStyle
  2
2dWireframe
 70
     4
 71
     0
 72
     2
 73
     0
 90
        0
 40
-0.6
 41
-30.0
 62
     5
 63
     7
 74
     1
 91
        4
 64
     7
 65
   257
 75
     1
175
     1
 42
1.0
 92
        0
 66
   257
 43
1.0
 76
     1
 77
     6
 78
     2
 67
     7
 79
     5
170
     0
171
     0
290
     0
174
     0
 93
        1
 44
0.0
173
     0
291
     0
 45
0.0
1001
ACAD
1000
AcDbSavedByObjectVersion
1070
     0
  0
VISUALSTYLE
  5
31
102
{ACAD_REACTORS
330
2A
102
}
330
2A
100
AcDbVisualStyle
  2
3D Hidden
 70
     6
 71
     1
 72
     2
 73
     2
 90
        0
 40
-0.6
 41
-30.0
 62
     5
 63
     7
 74
     2
 91
        2
 64
     7
 65
   257
 75
     2
175
     1
 42
40.0
 92
        0
 66
   257
 43
1.0
 76
     1
 77
     6
 78
     2
 67
     7
 79
     3
170
     0
171
     0
290
     0
174
     0
 93
        1
 44
0.0
173
     0
291
     0
 45
0.0
1001
ACAD
1000
AcDbSavedByObjectVersion
1070
     0
  0
VISUALSTYLE
  5
30
102
{ACAD_REACTORS
330
2A
102
}
330
2A
100
AcDbVisualStyle
  2
3dWireframe
 70
     5
 71
     0
 72
     2
 73
     0
 90
        0
 40
-0.6
 41
-30.0
 62
     5
 63
     7
 74
     1
 91
        4
 64
     7
 65
   257
 75
     1
175
     1
 42
1.0
 92
        0
 66
   257
 43
1.0
 76
     1
 77
     6
 78
     2
 67
     7
 79
     5
170
     0
171
     0
290
     0
174
     0
 93
        1
 44
0.0
173
     0
291
     0
 45
0.0
1001
ACAD
1000
AcDbSavedByObjectVersion
1070
     0
  0
VISUALSTYLE
  5
32
102
{ACAD_REACTORS
330
2A
102
}
330
2A
100
AcDbVisualStyle
  2
Basic
 70
     7
 71
     1
 72
     0
 73
     1
 90
        0
 40
-0.6
 41
-30.0
 62
     5
 63
     7
 74
     0
 91
        4
 64
     7
 65
   257
 75
     1
175
     1
 42
1.0
 92
        8
 66
     7
 43
1.0
 76
     1
 77
     6
 78
     2
 67
     7
 79
     5
170
     0
171
     0
290
     0
174
     0
 93
        1
 44
0.0
173
     0
291
     1
 45
0.0
1001
ACAD
1000
AcDbSavedByObjectVersion
1070
     0
  0
VISUALSTYLE
  5
36
102
{ACAD_REACTORS
330
2A
102
}
330
2A
100
AcDbVisualStyle
  2
Brighten
 70
    12
 71
     2
 72
     2
 73
     0
 90
        0
 40
-0.6
 41
-30.0
 62
     5
 63
     7
 74
     1
 91
        4
 64
     7
 65
   257
 75
     1
175
     1
 42
1.0
 92
        8
 66
     7
 43
1.0
 76
     1
 77
     6
 78
     2
 67
     7
 79
     5
170
     0
171
     0
290
     0
174
     0
 93
        1
 44
50.0
173
     0
291
     1
 45
0.0
1001
ACAD
1000
AcDbSavedByObjectVersion
1070
     0
  0
VISUALSTYLE
  5
3A
102
{ACAD_REACTORS
330
2A
102
}
330
2A
100
AcDbVisualStyle
  2
ColorChange
 70
    16
 71
     2
 72
     2
 73
     3
 90
        0
 40
-0.6
 41
-30.0
 62
     5
 63
     8
 74
     1
 91
        4
 64
     7
 65
   257
 75
     1
175
     1
 42
1.0
 92
        8
 66
     8
 43
1.0
 76
     1
 77
     6
 78
     2
 67
     7
 79
     5
170
     0
171
     0
290
     0
174
     0
 93
        1
 44
0.0
173
     0
291
     1
 45
0.0
1001
ACAD
1000
AcDbSavedByObjectVersion
1070
     0
  0
VISUALSTYLE
  5
34
102
{ACAD_REACTORS
330
2A
102
}
330
2A
100
AcDbVisualStyle
  2
Conceptual
 70
     9
 71
     3
 72
     2
 73
     0
 90
        0
 40
-0.6
 41
-30.0
 62
     5
 63
     7
 74
     2
 91
        2
 64
     7
 65
   257
 75
     1
175
     1
 42
40.0
 92
        8
 66
     7
 43
1.0
 76
     1
 77
     6
 78
     2
 67
     7
 79
     3
170
     0
171
     0
290
     0
174
     0
 93
        1
 44
0.0
173
     0
291
     0
 45
0.0
1001
ACAD
1000
AcDbSavedByObjectVersion
1070
     0
  0
VISUALSTYLE
  5
35
102
{ACAD_REACTORS
330
2A
102
}
330
2A
100
AcDbVisualStyle
  2
Dim
 70
    11
 71
     2
 72
     2
 73
     0
 90
        0
 40
-0.6
 41
-30.0
 62
     5
 63
     7
 74
     1
 91
        4
 64
     7
 65
   257
 75
     1
175
     1
 42
1.0
 92
        8
 66
     7
 43
1.0
 76
     1
 77
     6
 78
     2
 67
     7
 79
     5
170
     0
171
     0
290
     0
174
     0
 93
        1
 44
-50.0
173
     0
291
     1
 45
0.0
1001
ACAD
1000
AcDbSavedByObjectVersion
1070
     0
  0
VISUALSTYLE
  5
39
102
{ACAD_REACTORS
330
2A
102
}
330
2A
100
AcDbVisualStyle
  2
Facepattern
 70
    15
 71
     2
 72
     2
 73
     0
 90
        0
 40
-0.6
 41
-30.0
 62
     5
 63
     7
 74
     1
 91
        4
 64
     7
 65
   257
 75
     1
175
     1
 42
1.0
 92
        8
 66
     7
 43
1.0
 76
     1
 77
     6
 78
     2
 67
     7
 79
     5
170
     0
171
     0
290
     0
174
     0
 93
        1
 44
0.0
173
     0
291
     1
 45
0.0
1001
ACAD
1000
AcDbSavedByObjectVersion
1070
     0
  0
VISUALSTYLE
  5
2B
102
{ACAD_REACTORS
330
2A
102
}
330
2A
100
AcDbVisualStyle
  2
Flat
 70
     0
 71
     2
 72
     1
 73
     1
 90
        2
 40
-0.6
 41
30.0
 62
     5
 63
     7
 74
     0
 91
        4
 64
     7
 65
   257
 75
     1
175
     1
 42
1.0
 92
        8
 66
     7
 43
1.0
 76
     1
 77
     6
 78
     2
 67
     7
 79
     5
170
     0
171
     0
290
     0
174
     0
 93
       13
 44
0.0
173
     0
291
     1
 45
0.0
1001
ACAD
1000
AcDbSavedByObjectVersion
1070
     0
  0
VISUALSTYLE
  5
2C
102
{ACAD_REACTORS
330
2A
102
}
330
2A
100
AcDbVisualStyle
  2
FlatWithEdges
 70
     1
 71
     2
 72
     1
 73
     1
 90
        2
 40
-0.6
 41
30.0
 62
     5
 63
     7
 74
     1
 91
        4
 64
     7
 65
   257
 75
     1
175
     1
 42
1.0
 92
        0
 66
   257
 43
1.0
 76
     1
 77
     6
 78
     2
 67
     7
 79
     5
170
     0
171
     0
290
     0
174
     0
 93
       13
 44
0.0
173
     0
291
     1
 45
0.0
1001
ACAD
1000
AcDbSavedByObjectVersion
1070
     0
  0
VISUALSTYLE
  5
2D
102
{ACAD_REACTORS
330
2A
102
}
330
2A
100
AcDbVisualStyle
  2
Gouraud
 70
     2
 71
     2
 72
     2
 73
     1
 90
        2
 40
-0.6
 41
30.0
 62
     5
 63
     7
 74
     0
 91
        4
 64
     7
 65
   257
 75
     1
175
     1
 42
1.0
 92
        0
 66
     7
 43
1.0
 76
     1
 77
     6
 78
     2
 67
     7
 79
     5
170
     0
171
     0
290
     0
174
     0
 93
       13
 44
0.0
173
     0
291
     1
 45
0.0
1001
ACAD
1000
AcDbSavedByObjectVersion
1070
     0
  0
VISUALSTYLE
  5
2E
102
{ACAD_REACTORS
330
2A
102
}
330
2A
100
AcDbVisualStyle
  2
GouraudWithEdges
 70
     3
 71
     2
 72
     2
 73
     1
 90
        2
 40
-0.6
 41
30.0
 62
     5
 63
     7
 74
     1
 91
        4
 64
     7
 65
   257
 75
     1
175
     1
 42
1.0
 92
        0
 66
   257
 43
1.0
 76
     1
 77
     6
 78
     2
 67
     7
 79
     5
170
     0
171
     0
290
     0
174
     0
 93
       13
 44
0.0
173
     0
291
     1
 45
0.0
1001
ACAD
1000
AcDbSavedByObjectVersion
1070
     0
  0
VISUALSTYLE
  5
38
102
{ACAD_REACTORS
330
2A
102
}
330
2A
100
AcDbVisualStyle
  2
Linepattern
 70
    14
 71
     2
 72
     2
 73
     0
 90
        0
 40
-0.6
 41
-30.0
 62
     5
 63
     7
 74
     1
 91
        4
 64
     7
 65
   257
 75
     7
175
     7
 42
1.0
 92
        8
 66
     7
 43
1.0
 76
     1
 77
     6
 78
     2
 67
     7
 79
     5
170
     0
171
     0
290
     0
174
     0
 93
        1
 44
0.0
173
     0
291
     1
 45
0.0
1001
ACAD
1000
AcDbSavedByObjectVersion
1070
     0
  0
VISUALSTYLE
  5
33
102
{ACAD_REACTORS
330
2A
102
}
330
2A
100
AcDbVisualStyle
  2
Realistic
 70
     8
 71
     2
 72
     2
 73
     0
 90
        0
 40
-0.6
 41
-30.0
 62
     5
 63
     7
 74
     1
 91
        0
 64
     7
 65
   257
 75
     1
175
     1
 42
1.0
 92
        8
 66
     8
 43
1.0
 76
     1
 77
     6
 78
     2
 67
     7
 79
     5
170
     0
171
     0
290
     0
174
     0
 93
       13
 44
0.0
173
     0
291
     0
 45
0.0
1001
ACAD
1000
AcDbSavedByObjectVersion
1070
     0
  0
VISUALSTYLE
  5
37
102
{ACAD_REACTORS
330
2A
102
}
330
2A
100
AcDbVisualStyle
  2
Thicken
 70
    13
 71
     2
 72
     2
 73
     0
 90
        0
 40
-0.6
 41
-30.0
 62
     5
 63
     7
 74
     1
 91
        4
 64
     7
 65
   257
 75
     1
175
     1
 42
1.0
 92
       12
 66
     7
 43
1.0
 76
     1
 77
     6
 78
     2
 67
     7
 79
     5
170
     0
171
     0
290
     0
174
     0
 93
        1
 44
0.0
173
     0
291
     1
 45
0.0
1001
ACAD
1000
AcDbSavedByObjectVersion
1070
     0
  0
DICTIONARYVAR
  5
3BC
102
{ACAD_REACTORS
330
3B7
102
}
330
3B7
100
DictionaryVariables
280
     0
  1
1:1
  0
DICTIONARYVAR
  5
3BD
102
{ACAD_REACTORS
330
3B7
102
}
330
3B7
100
DictionaryVariables
280
     0
  1
2
  0
DICTIONARYVAR
  5
3BE
102
{ACAD_REACTORS
330
3B7
102
}
330
3B7
100
DictionaryVariables
280
     0
  1
1
  0
DICTIONARYVAR
  5
3BB
102
{ACAD_REACTORS
330
3B7
102
}
330
3B7
100
DictionaryVariables
280
     0
  1
80.000000
  0
DICTIONARYVAR
  5
3BA
102
{ACAD_REACTORS
330
3B7
102
}
330
3B7
100
DictionaryVariables
280
     0
  1
5.000000
  0
ENDSEC
  0
EOF
