  0
SECTION
  2
HEADER
  9
$ACADVER
  1
AC1015
  9
$ACADMAINTVER
 70
     6
  9
$DWGCODEPAGE
  3
ANSI_1252
  9
$INSBASE
 10
0.0
 20
0.0
 30
0.0
  9
$EXTMIN
 10
0.0
 20
0.0
 30
0.0
  9
$EXTMAX
 10
420.0
 20
297.0
 30
0.0
  9
$LIMMIN
 10
0.0
 20
0.0
  9
$LIMMAX
 10
420.0
 20
297.0
  9
$ORTHOMODE
 70
     0
  9
$REGENMODE
 70
     1
  9
$FILLMODE
 70
     1
  9
$QTEXTMODE
 70
     0
  9
$MIRRTEXT
 70
     1
  9
$LTSCALE
 40
1.0
  9
$ATTMODE
 70
     1
  9
$TEXTSIZE
 40
3.5
  9
$TRACEWID
 40
1.0
  9
$TEXTSTYLE
  7
STANDARD
  9
$CLAYER
  8
0
  9
$CELTYPE
  6
ByLayer
  9
$CECOLOR
 62
   256
  9
$CELTSCALE
 40
1.0
  9
$DISPSILH
 70
     0
  9
$DIMSCALE
 40
1.0
  9
$DIMASZ
 40
6.0
  9
$DIMEXO
 40
1.0
  9
$DIMDLI
 40
3.75
  9
$DIMRND
 40
0.0
  9
$DIMDLE
 40
0.0
  9
$DIMEXE
 40
1.0
  9
$DIMTP
 40
0.0
  9
$DIMTM
 40
0.0
  9
$DIMTXT
 40
3.5
  9
$DIMCEN
 40
2.5
  9
$DIMTSZ
 40
0.0
  9
$DIMTOL
 70
     0
  9
$DIMLIM
 70
     0
  9
$DIMTIH
 70
     1
  9
$DIMTOH
 70
     1
  9
$DIMSE1
 70
     0
  9
$DIMSE2
 70
     0
  9
$DIMTAD
 70
     1
  9
$DIMZIN
 70
     0
  9
$DIMBLK
  1

  9
$DIMASO
 70
     1
  9
$DIMSHO
 70
     1
  9
$DIMPOST
  1

  9
$DIMAPOST
  1

  9
$DIMALT
 70
     0
  9
$DIMALTD
 70
     3
  9
$DIMALTF
 40
0.0393700787
  9
$DIMLFAC
 40
1.0
  9
$DIMTOFL
 70
     1
  9
$DIMTVP
 40
0.0
  9
$DIMTIX
 70
     0
  9
$DIMSOXD
 70
     0
  9
$DIMSAH
 70
     0
  9
$DIMBLK1
  1

  9
$DIMBLK2
  1

  9
$DIMSTYLE
  2
ISO-25
  9
$DIMCLRD
 70
     0
  9
$DIMCLRE
 70
     0
  9
$DIMCLRT
 70
     0
  9
$DIMTFAC
 40
1.0
  9
$DIMGAP
 40
1.524
  9
$DIMJUST
 70
     0
  9
$DIMSD1
 70
     0
  9
$DIMSD2
 70
     0
  9
$DIMTOLJ
 70
     0
  9
$DIMTZIN
 70
     0
  9
$DIMALTZ
 70
     0
  9
$DIMALTTZ
 70
     0
  9
$DIMUPT
 70
     0
  9
$DIMDEC
 70
     3
  9
$DIMTDEC
 70
     3
  9
$DIMALTU
 70
     2
  9
$DIMALTTD
 70
     3
  9
$DIMTXSTY
  7
STANDARD
  9
$DIMAUNIT
 70
     0
  9
$DIMADEC
 70
     2
  9
$DIMALTRND
 40
0.0
  9
$DIMAZIN
 70
     0
  9
$DIMDSEP
 70
    44
  9
$DIMATFIT
 70
     3
  9
$DIMFRAC
 70
     0
  9
$DIMLDRBLK
  1

  9
$DIMLUNIT
 70
     2
  9
$DIMLWD
 70
    -2
  9
$DIMLWE
 70
    -2
  9
$DIMTMOVE
 70
     0
  9
$LUNITS
 70
     2
  9
$LUPREC
 70
     2
  9
$SKETCHINC
 40
1.0
  9
$FILLETRAD
 40
10.0
  9
$AUNITS
 70
     0
  9
$AUPREC
 70
     2
  9
$MENU
  1
.
  9
$ELEVATION
 40
0.0
  9
$PELEVATION
 40
0.0
  9
$THICKNESS
 40
0.0
  9
$LIMCHECK
 70
     0
  9
$CHAMFERA
 40
10.0
  9
$CHAMFERB
 40
10.0
  9
$CHAMFERC
 40
20.0
  9
$CHAMFERD
 40
0.0
  9
$SKPOLY
 70
     0
  9
$TDCREATE
 40
2457812.501954734
  9
$TDUCREATE
 40
2457812.085288067
  9
$TDUPDATE
 40
2457812.501954746
  9
$TDUUPDATE
 40
2457812.085288079
  9
$TDINDWG
 40
0.0000000116
  9
$TDUSRTIMER
 40
0.0000000116
  9
$USRTIMER
 70
     1
  9
$ANGBASE
 50
0.0
  9
$ANGDIR
 70
     0
  9
$PDMODE
 70
     0
  9
$PDSIZE
 40
-1.0
  9
$PLINEWID
 40
0.0
  9
$SPLFRAME
 70
     0
  9
$SPLINETYPE
 70
     6
  9
$SPLINESEGS
 70
     8
  9
$HANDSEED
  5
2C1
  9
$SURFTAB1
 70
     6
  9
$SURFTAB2
 70
     6
  9
$SURFTYPE
 70
     6
  9
$SURFU
 70
     6
  9
$SURFV
 70
     6
  9
$UCSBASE
  2

  9
$UCSNAME
  2

  9
$UCSORG
 10
0.0
 20
0.0
 30
0.0
  9
$UCSXDIR
 10
1.0
 20
0.0
 30
0.0
  9
$UCSYDIR
 10
0.0
 20
1.0
 30
0.0
  9
$UCSORTHOREF
  2

  9
$UCSORTHOVIEW
 70
     0
  9
$UCSORGTOP
 10
0.0
 20
0.0
 30
0.0
  9
$UCSORGBOTTOM
 10
0.0
 20
0.0
 30
0.0
  9
$UCSORGLEFT
 10
0.0
 20
0.0
 30
0.0
  9
$UCSORGRIGHT
 10
0.0
 20
0.0
 30
0.0
  9
$UCSORGFRONT
 10
0.0
 20
0.0
 30
0.0
  9
$UCSORGBACK
 10
0.0
 20
0.0
 30
0.0
  9
$PUCSBASE
  2

  9
$PUCSNAME
  2

  9
$PUCSORG
 10
0.0
 20
0.0
 30
0.0
  9
$PUCSXDIR
 10
1.0
 20
0.0
 30
0.0
  9
$PUCSYDIR
 10
0.0
 20
1.0
 30
0.0
  9
$PUCSORTHOREF
  2

  9
$PUCSORTHOVIEW
 70
     0
  9
$PUCSORGTOP
 10
0.0
 20
0.0
 30
0.0
  9
$PUCSORGBOTTOM
 10
0.0
 20
0.0
 30
0.0
  9
$PUCSORGLEFT
 10
0.0
 20
0.0
 30
0.0
  9
$PUCSORGRIGHT
 10
0.0
 20
0.0
 30
0.0
  9
$PUCSORGFRONT
 10
0.0
 20
0.0
 30
0.0
  9
$PUCSORGBACK
 10
0.0
 20
0.0
 30
0.0
  9
$USERI1
 70
     0
  9
$USERI2
 70
     0
  9
$USERI3
 70
     0
  9
$USERI4
 70
     0
  9
$USERI5
 70
     0
  9
$USERR1
 40
0.0
  9
$USERR2
 40
0.0
  9
$USERR3
 40
0.0
  9
$USERR4
 40
0.0
  9
$USERR5
 40
0.0
  9
$WORLDVIEW
 70
     1
  9
$SHADEDGE
 70
     3
  9
$SHADEDIF
 70
    70
  9
$TILEMODE
 70
     1
  9
$MAXACTVP
 70
    64
  9
$PINSBASE
 10
0.0
 20
0.0
 30
0.0
  9
$PLIMCHECK
 70
     0
  9
$PEXTMIN
 10
1.0000000000E+20
 20
1.0000000000E+20
 30
1.0000000000E+20
  9
$PEXTMAX
 10
-1.0000000000E+20
 20
-1.0000000000E+20
 30
-1.0000000000E+20
  9
$PLIMMIN
 10
0.0
 20
0.0
  9
$PLIMMAX
 10
420.0
 20
297.0
  9
$UNITMODE
 70
     0
  9
$VISRETAIN
 70
     1
  9
$PLINEGEN
 70
     0
  9
$PSLTSCALE
 70
     1
  9
$TREEDEPTH
 70
  3020
  9
$CMLSTYLE
  2
Standard
  9
$CMLJUST
 70
     0
  9
$CMLSCALE
 40
20.0
  9
$PROXYGRAPHICS
 70
     1
  9
$MEASUREMENT
 70
     1
  9
$CELWEIGHT
370
    -1
  9
$ENDCAPS
280
     0
  9
$JOINSTYLE
280
     0
  9
$LWDISPLAY
290
     1
  9
$INSUNITS
 70
     4
  9
$HYPERLINKBASE
  1

  9
$STYLESHEET
  1

  9
$XEDIT
290
     1
  9
$CEPSNTYPE
380
     0
  9
$PSTYLEMODE
290
     1
  9
$FINGERPRINTGUID
  2
{07111130-4AA0-485F-BEC5-94C16E84441F}
  9
$VERSIONGUID
  2
{FAEB1C32-E019-11D5-929B-00C0DF256EC4}
  9
$EXTNAMES
290
     1
  9
$PSVPSCALE
 40
0.0
  9
$OLESTARTUP
290
     0
  0
ENDSEC
  0
SECTION
  2
CLASSES
  0
CLASS
  1
ACDBDICTIONARYWDFLT
  2
AcDbDictionaryWithDefault
  3
ObjectDBX Classes
 90
        0
280
     0
281
     0
  0
CLASS
  1
VISUALSTYLE
  2
AcDbVisualStyle
  3
ObjectDBX Classes
 90
     4095
280
     0
281
     0
  0
CLASS
  1
DICTIONARYVAR
  2
AcDbDictionaryVar
  3
ObjectDBX Classes
 90
        0
280
     0
281
     0
  0
CLASS
  1
ACDBPLACEHOLDER
  2
AcDbPlaceHolder
  3
ObjectDBX Classes
 90
        0
280
     0
281
     0
  0
CLASS
  1
LAYOUT
  2
AcDbLayout
  3
ObjectDBX Classes
 90
        0
280
     0
281
     0
  0
ENDSEC
  0
SECTION
  2
TABLES
  0
TABLE
  2
VPORT
  5
8
330
0
100
AcDbSymbolTable
 70
     1
  0
VPORT
  5
29
330
8
100
AcDbSymbolTableRecord
100
AcDbViewportTableRecord
  2
*Active
 70
     0
 10
0.0
 20
0.0
 11
1.0
 21
1.0
 12
210.0
 22
148.5
 13
0.0
 23
0.0
 14
10.0
 24
10.0
 15
10.0
 25
10.0
 16
0.0
 26
0.0
 36
1.0
 17
0.0
 27
0.0
 37
0.0
 40
297.0
 41
1.4141414141
 42
50.0
 43
0.0
 44
0.0
 50
0.0
 51
0.0
 71
     0
 72
  2000
 73
     1
 74
     3
 75
     0
 76
     0
 77
     0
 78
     0
281
     0
 65
     1
110
0.0
120
0.0
130
0.0
111
1.0
121
0.0
131
0.0
112
0.0
122
1.0
132
0.0
 79
     0
146
0.0
  0
ENDTAB
  0
TABLE
  2
LTYPE
  5
5
330
0
100
AcDbSymbolTable
 70
     6
  0
LTYPE
  5
14
330
5
100
AcDbSymbolTableRecord
100
AcDbLinetypeTableRecord
  2
ByBlock
 70
     0
  3

 72
    65
 73
     0
 40
0.0
  0
LTYPE
  5
15
330
5
100
AcDbSymbolTableRecord
100
AcDbLinetypeTableRecord
  2
ByLayer
 70
     0
  3

 72
    65
 73
     0
 40
0.0
  0
LTYPE
  5
16
330
5
100
AcDbSymbolTableRecord
100
AcDbLinetypeTableRecord
  2
Continuous
 70
     0
  3
Solid line
 72
    65
 73
     0
 40
0.0
  0
LTYPE
  5
3B
330
5
100
AcDbSymbolTableRecord
100
AcDbLinetypeTableRecord
  2
HIDDEN
 70
     0
  3
Hidden __ __ __ __ __ __ __ __ __ __ __ __ __ __
 72
    65
 73
     2
 40
1.905
 49
1.27
 74
     0
 49
-0.635
 74
     0
  0
LTYPE
  5
3C
330
5
100
AcDbSymbolTableRecord
100
AcDbLinetypeTableRecord
  2
PHANTOM
 70
     0
  3
Phantom ______  __  __  ______  __  __  ______
 72
    65
 73
     6
 40
12.7
 49
6.35
 74
     0
 49
-1.27
 74
     0
 49
1.27
 74
     0
 49
-1.27
 74
     0
 49
1.27
 74
     0
 49
-1.27
 74
     0
  0
LTYPE
  5
3D
330
5
100
AcDbSymbolTableRecord
100
AcDbLinetypeTableRecord
  2
CENTER
 70
     0
  3
Center ____ _ ____ _ ____ _ ____ _ ____ _ ____
 72
    65
 73
     4
 40
10.16
 49
6.35
 74
     0
 49
-1.27
 74
     0
 49
1.27
 74
     0
 49
-1.27
 74
     0
  0
LTYPE
  5
3E
330
5
100
AcDbSymbolTableRecord
100
AcDbLinetypeTableRecord
  2
CENTERX2
 70
     0
  3
Center (2x) ________  __  ________  __  _____
 72
    65
 73
     4
 40
20.32
 49
12.7
 74
     0
 49
-2.54
 74
     0
 49
2.54
 74
     0
 49
-2.54
 74
     0
  0
LTYPE
  5
3F
330
5
100
AcDbSymbolTableRecord
100
AcDbLinetypeTableRecord
  2
DOT2
 70
     0
  3
Dot (.5x) ........................................
 72
    65
 73
     2
 40
0.635
 49
0.0
 74
     0
 49
-0.635
 74
     0
  0
ENDTAB
  0
TABLE
  2
LAYER
  5
2
330
0
100
AcDbSymbolTable
 70
     1
  0
LAYER
  5
10
330
2
100
AcDbSymbolTableRecord
100
AcDbLayerTableRecord
  2
0
 70
     0
 62
     7
  6
Continuous
370
    -3
390
F
  0
ENDTAB
  0
TABLE
  2
STYLE
  5
3
330
0
100
AcDbSymbolTable
 70
     1
  0
STYLE
  5
11
330
3
100
AcDbSymbolTableRecord
100
AcDbTextStyleTableRecord
  2
STANDARD
 70
     0
 40
0.0
 41
1.0
 50
0.0
 71
     0
 42
2.5
  3
GOTHIC.TTF
  4

1001
ACAD
1000
CENTURY GOTHIC
1071
       34
  0
ENDTAB
  0
TABLE
  2
VIEW
  5
6
330
0
100
AcDbSymbolTable
 70
     0
  0
ENDTAB
  0
TABLE
  2
UCS
  5
7
330
0
100
AcDbSymbolTable
 70
     0
  0
ENDTAB
  0
TABLE
  2
APPID
  5
9
330
0
100
AcDbSymbolTable
 70
     1
  0
APPID
  5
12
330
9
100
AcDbSymbolTableRecord
100
AcDbRegAppTableRecord
  2
ACAD
 70
     0
  0
ENDTAB
  0
TABLE
  2
DIMSTYLE
  5
A
330
0
100
AcDbSymbolTable
 70
     1
100
AcDbDimStyleTable
  0
DIMSTYLE
105
27
330
A
100
AcDbSymbolTableRecord
100
AcDbDimStyleTableRecord
  2
ISO-25
 70
     0
 41
2.5
 42
0.625
 43
3.75
 44
1.25
 73
     0
 74
     0
 77
     1
 78
     8
140
2.5
141
2.5
143
0.0393700787
147
0.625
171
     3
172
     1
271
     2
272
     2
274
     3
278
    44
283
     0
284
     8
340
11
  0
ENDTAB
  0
TABLE
  2
BLOCK_RECORD
  5
1
330
0
100
AcDbSymbolTable
 70
     4
  0
BLOCK_RECORD
  5
1F
330
1
100
AcDbSymbolTableRecord
100
AcDbBlockTableRecord
  2
*Model_Space
340
22
  0
BLOCK_RECORD
  5
1B
330
1
100
AcDbSymbolTableRecord
100
AcDbBlockTableRecord
  2
*Paper_Space
340
1E
  0
BLOCK_RECORD
  5
23
330
1
100
AcDbSymbolTableRecord
100
AcDbBlockTableRecord
  2
*Paper_Space0
340
26
  0
BLOCK_RECORD
  5
296
330
1
100
AcDbSymbolTableRecord
100
AcDbBlockTableRecord
  2
SW_CENTERMARKSYMBOL_0
340
0
102
{BLKREFS
331
2A1
102
}
  0
BLOCK_RECORD
  5
2A2
330
1
100
AcDbSymbolTableRecord
100
AcDbBlockTableRecord
  2
SW_CENTERMARKSYMBOL_1
340
0
102
{BLKREFS
331
2AD
102
}
  0
BLOCK_RECORD
  5
2AE
330
1
100
AcDbSymbolTableRecord
100
AcDbBlockTableRecord
  2
SW_CENTERMARKSYMBOL_2
340
0
102
{BLKREFS
331
2B9
102
}
  0
ENDTAB
  0
ENDSEC
  0
SECTION
  2
BLOCKS
  0
BLOCK
  5
20
330
1F
100
AcDbEntity
  8
0
100
AcDbBlockBegin
  2
*Model_Space
 70
     0
 10
0.0
 20
0.0
 30
0.0
  3
*Model_Space
  1

  0
ENDBLK
  5
21
330
1F
100
AcDbEntity
  8
0
100
AcDbBlockEnd
  0
BLOCK
  5
1C
330
1B
100
AcDbEntity
 67
     1
  8
0
100
AcDbBlockBegin
  2
*Paper_Space
 70
     0
 10
0.0
 20
0.0
 30
0.0
  3
*Paper_Space
  1

  0
ENDBLK
  5
1D
330
1B
100
AcDbEntity
 67
     1
  8
0
100
AcDbBlockEnd
  0
BLOCK
  5
24
330
23
100
AcDbEntity
  8
0
100
AcDbBlockBegin
  2
*Paper_Space0
 70
     0
 10
0.0
 20
0.0
 30
0.0
  3
*Paper_Space0
  1

  0
ENDBLK
  5
25
330
23
100
AcDbEntity
  8
0
100
AcDbBlockEnd
  0
BLOCK
  5
297
330
296
100
AcDbEntity
  8
0
100
AcDbBlockBegin
  2
SW_CENTERMARKSYMBOL_0
 70
     0
 10
0.0
 20
0.0
 30
0.0
  3
SW_CENTERMARKSYMBOL_0
  1

  0
LINE
  5
299
330
296
100
AcDbEntity
  8
0
  6
Continuous
 62
     0
370
     0
100
AcDbLine
 10
0.0
 20
0.0
 30
0.0
 11
0.0
 21
2.5
 31
0.0
  0
LINE
  5
29A
330
296
100
AcDbEntity
  8
0
  6
Continuous
 62
     0
370
     0
100
AcDbLine
 10
0.0
 20
0.0
 30
0.0
 11
-2.5
 21
0.0
 31
0.0
  0
LINE
  5
29B
330
296
100
AcDbEntity
  8
0
  6
Continuous
 62
     0
370
     0
100
AcDbLine
 10
0.0
 20
0.0
 30
0.0
 11
0.0
 21
-2.5
 31
0.0
  0
LINE
  5
29C
330
296
100
AcDbEntity
  8
0
  6
Continuous
 62
     0
370
     0
100
AcDbLine
 10
0.0
 20
0.0
 30
0.0
 11
2.5
 21
0.0
 31
0.0
  0
LINE
  5
29D
330
296
100
AcDbEntity
  8
0
  6
Continuous
 62
     0
370
     0
100
AcDbLine
 10
0.0
 20
5.0
 30
0.0
 11
0.0
 21
5.6344275368
 31
0.0
  0
LINE
  5
29E
330
296
100
AcDbEntity
  8
0
  6
Continuous
 62
     0
370
     0
100
AcDbLine
 10
-5.0
 20
0.0
 30
0.0
 11
-5.6344275368
 21
0.0
 31
0.0
  0
LINE
  5
29F
330
296
100
AcDbEntity
  8
0
  6
Continuous
 62
     0
370
     0
100
AcDbLine
 10
0.0
 20
-5.0
 30
0.0
 11
0.0
 21
-5.6344275368
 31
0.0
  0
LINE
  5
2A0
330
296
100
AcDbEntity
  8
0
  6
Continuous
 62
     0
370
     0
100
AcDbLine
 10
5.0
 20
0.0
 30
0.0
 11
5.6344275368
 21
0.0
 31
0.0
  0
ENDBLK
  5
298
330
296
100
AcDbEntity
  8
0
100
AcDbBlockEnd
  0
BLOCK
  5
2A3
330
2A2
100
AcDbEntity
  8
0
100
AcDbBlockBegin
  2
SW_CENTERMARKSYMBOL_1
 70
     0
 10
0.0
 20
0.0
 30
0.0
  3
SW_CENTERMARKSYMBOL_1
  1

  0
LINE
  5
2A5
330
2A2
100
AcDbEntity
  8
0
  6
Continuous
 62
     0
370
     0
100
AcDbLine
 10
0.0
 20
0.0
 30
0.0
 11
0.0
 21
2.5
 31
0.0
  0
LINE
  5
2A6
330
2A2
100
AcDbEntity
  8
0
  6
Continuous
 62
     0
370
     0
100
AcDbLine
 10
0.0
 20
0.0
 30
0.0
 11
-2.5
 21
0.0
 31
0.0
  0
LINE
  5
2A7
330
2A2
100
AcDbEntity
  8
0
  6
Continuous
 62
     0
370
     0
100
AcDbLine
 10
0.0
 20
0.0
 30
0.0
 11
0.0
 21
-2.5
 31
0.0
  0
LINE
  5
2A8
330
2A2
100
AcDbEntity
  8
0
  6
Continuous
 62
     0
370
     0
100
AcDbLine
 10
0.0
 20
0.0
 30
0.0
 11
2.5
 21
0.0
 31
0.0
  0
LINE
  5
2A9
330
2A2
100
AcDbEntity
  8
0
  6
Continuous
 62
     0
370
     0
100
AcDbLine
 10
0.0
 20
5.0
 30
0.0
 11
0.0
 21
5.6344275368
 31
0.0
  0
LINE
  5
2AA
330
2A2
100
AcDbEntity
  8
0
  6
Continuous
 62
     0
370
     0
100
AcDbLine
 10
-5.0
 20
0.0
 30
0.0
 11
-5.6344275368
 21
0.0
 31
0.0
  0
LINE
  5
2AB
330
2A2
100
AcDbEntity
  8
0
  6
Continuous
 62
     0
370
     0
100
AcDbLine
 10
0.0
 20
-5.0
 30
0.0
 11
0.0
 21
-5.6344275368
 31
0.0
  0
LINE
  5
2AC
330
2A2
100
AcDbEntity
  8
0
  6
Continuous
 62
     0
370
     0
100
AcDbLine
 10
5.0
 20
0.0
 30
0.0
 11
5.6344275368
 21
0.0
 31
0.0
  0
ENDBLK
  5
2A4
330
2A2
100
AcDbEntity
  8
0
100
AcDbBlockEnd
  0
BLOCK
  5
2AF
330
2AE
100
AcDbEntity
  8
0
100
AcDbBlockBegin
  2
SW_CENTERMARKSYMBOL_2
 70
     0
 10
0.0
 20
0.0
 30
0.0
  3
SW_CENTERMARKSYMBOL_2
  1

  0
LINE
  5
2B1
330
2AE
100
AcDbEntity
  8
0
  6
Continuous
 62
     0
370
     0
100
AcDbLine
 10
0.0
 20
0.0
 30
0.0
 11
0.0
 21
2.5
 31
0.0
  0
LINE
  5
2B2
330
2AE
100
AcDbEntity
  8
0
  6
Continuous
 62
     0
370
     0
100
AcDbLine
 10
0.0
 20
0.0
 30
0.0
 11
-2.5
 21
0.0
 31
0.0
  0
LINE
  5
2B3
330
2AE
100
AcDbEntity
  8
0
  6
Continuous
 62
     0
370
     0
100
AcDbLine
 10
0.0
 20
0.0
 30
0.0
 11
0.0
 21
-2.5
 31
0.0
  0
LINE
  5
2B4
330
2AE
100
AcDbEntity
  8
0
  6
Continuous
 62
     0
370
     0
100
AcDbLine
 10
0.0
 20
0.0
 30
0.0
 11
2.5
 21
0.0
 31
0.0
  0
LINE
  5
2B5
330
2AE
100
AcDbEntity
  8
0
  6
Continuous
 62
     0
370
     0
100
AcDbLine
 10
0.0
 20
5.0
 30
0.0
 11
0.0
 21
5.6344275368
 31
0.0
  0
LINE
  5
2B6
330
2AE
100
AcDbEntity
  8
0
  6
Continuous
 62
     0
370
     0
100
AcDbLine
 10
-5.0
 20
0.0
 30
0.0
 11
-5.6344275368
 21
0.0
 31
0.0
  0
LINE
  5
2B7
330
2AE
100
AcDbEntity
  8
0
  6
Continuous
 62
     0
370
     0
100
AcDbLine
 10
0.0
 20
-5.0
 30
0.0
 11
0.0
 21
-5.6344275368
 31
0.0
  0
LINE
  5
2B8
330
2AE
100
AcDbEntity
  8
0
  6
Continuous
 62
     0
370
     0
100
AcDbLine
 10
5.0
 20
0.0
 30
0.0
 11
5.6344275368
 21
0.0
 31
0.0
  0
ENDBLK
  5
2B0
330
2AE
100
AcDbEntity
  8
0
100
AcDbBlockEnd
  0
ENDSEC
  0
SECTION
  2
ENTITIES
  0
LINE
  5
40
330
1F
100
AcDbEntity
  8
0
  6
Continuous
 62
     7
370
    15
100
AcDbLine
 10
306.0425602171
 20
143.1943616149
 30
0.0
 11
298.3675383303
 21
143.1943616149
 31
0.0
  0
ARC
  5
41
330
1F
100
AcDbEntity
  8
0
  6
Continuous
 62
     7
370
    15
100
AcDbCircle
 10
306.0425634711
 20
142.6943616846
 30
0.0
 40
0.5000000000000017
100
AcDbArc
 50
77.8005303505
 51
90.0
  0
LINE
  5
42
330
1F
100
AcDbEntity
  8
0
  6
Continuous
 62
     7
370
    15
100
AcDbLine
 10
227.9507059876
 20
143.1943616149
 30
0.0
 11
222.285684039
 21
143.1943616149
 31
0.0
  0
ARC
  5
43
330
1F
100
AcDbEntity
  8
0
  6
Continuous
 62
     7
370
    15
100
AcDbCircle
 10
222.2856839516
 20
142.6943616846
 30
0.0
 40
0.5000000000000077
100
AcDbArc
 50
90.0
 51
102.1994696495
  0
LINE
  5
44
330
1F
100
AcDbEntity
  8
0
  6
Continuous
 62
     7
370
    15
100
AcDbLine
 10
254.4507056746
 20
143.1943616149
 30
0.0
 11
245.3675408188
 21
143.1943616149
 31
0.0
  0
LINE
  5
45
330
1F
100
AcDbEntity
  8
0
  6
Continuous
 62
     7
370
    15
100
AcDbLine
 10
280.9507034991
 20
143.1943616149
 30
0.0
 11
271.8675405059
 21
143.1943616149
 31
0.0
  0
LINE
  5
46
330
1F
100
AcDbEntity
  8
0
  6
Continuous
 62
     7
370
    15
100
AcDbLine
 10
271.8675405059
 20
137.496153849
 30
0.0
 11
280.9507034991
 21
137.496153849
 31
0.0
  0
ARC
  5
47
330
1F
100
AcDbEntity
  8
0
  6
Continuous
 62
     7
370
    15
100
AcDbCircle
 10
306.0425634711
 20
137.9961537793
 30
0.0
 40
0.5
100
AcDbArc
 50
270.0
 51
282.1994696496
  0
LINE
  5
48
330
1F
100
AcDbEntity
  8
0
  6
Continuous
 62
     7
370
    15
100
AcDbLine
 10
298.3675383303
 20
137.496153849
 30
0.0
 11
306.0425602171
 21
137.496153849
 31
0.0
  0
LINE
  5
49
330
1F
100
AcDbEntity
  8
0
  6
Continuous
 62
     7
370
    15
100
AcDbLine
 10
222.285684039
 20
137.496153849
 30
0.0
 11
227.9507059876
 21
137.496153849
 31
0.0
  0
LINE
  5
4A
330
1F
100
AcDbEntity
  8
0
  6
Continuous
 62
     7
370
    15
100
AcDbLine
 10
245.3675408188
 20
137.496153849
 30
0.0
 11
254.4507056746
 21
137.496153849
 31
0.0
  0
ARC
  5
4B
330
1F
100
AcDbEntity
  8
0
  6
Continuous
 62
     7
370
    15
100
AcDbCircle
 10
222.2856839516
 20
137.9961537793
 30
0.0
 40
0.5000000000000077
100
AcDbArc
 50
257.8005303505
 51
270.0
  0
LINE
  5
4C
330
1F
100
AcDbEntity
  8
0
  6
Continuous
 62
     7
370
    15
100
AcDbLine
 10
307.6516993616
 20
139.1828106966
 30
0.0
 11
307.6645516131
 21
139.52601558
 31
0.0
  0
LINE
  5
4D
330
1F
100
AcDbEntity
  8
0
  6
Continuous
 62
     7
370
    15
100
AcDbLine
 10
220.6636972997
 20
139.52601558
 30
0.0
 11
220.676544429
 21
139.1828106966
 31
0.0
  0
LINE
  5
4E
330
1F
100
AcDbEntity
  8
0
  6
Continuous
 62
     7
370
    15
100
AcDbLine
 10
307.6645516131
 20
141.1644998839
 30
0.0
 11
307.6516993616
 21
141.5077047673
 31
0.0
  0
LINE
  5
4F
330
1F
100
AcDbEntity
  8
0
  6
Continuous
 62
     7
370
    15
100
AcDbLine
 10
220.676544429
 20
141.5077047673
 30
0.0
 11
220.6636972997
 21
141.1644998839
 31
0.0
  0
ARC
  5
50
330
1F
100
AcDbEntity
  8
0
  6
Continuous
 62
     7
370
    15
100
AcDbCircle
 10
201.5106925888
 20
145.0059969927
 30
0.0
 40
0.1000000000000227
100
AcDbArc
 50
90.0
 51
116.5580680166
  0
ARC
  5
51
330
1F
100
AcDbEntity
  8
0
  6
Continuous
 62
     7
370
    15
100
AcDbCircle
 10
201.5106925888
 20
135.6845184713
 30
0.0
 40
0.0999999999999943
100
AcDbArc
 50
243.4419319834
 51
270.0
  0
ARC
  5
52
330
1F
100
AcDbEntity
  8
0
  6
Continuous
 62
     7
370
    15
100
AcDbCircle
 10
200.8175548339
 20
135.6845184713
 30
0.0
 40
0.0999999999999943
100
AcDbArc
 50
270.0
 51
296.5580680166
  0
ARC
  5
53
330
1F
100
AcDbEntity
  8
0
  6
Continuous
 62
     7
370
    15
100
AcDbCircle
 10
200.8175548339
 20
145.0059969927
 30
0.0
 40
0.1000000000000227
100
AcDbArc
 50
63.4419319834
 51
90.0
  0
LINE
  5
54
330
1F
100
AcDbEntity
  8
0
  6
Continuous
 62
     7
370
    15
100
AcDbLine
 10
121.5567373011
 20
142.0051005221
 30
0.0
 11
129.2715080354
 21
142.0051005221
 31
0.0
  0
LINE
  5
55
330
1F
100
AcDbEntity
  8
0
  6
Continuous
 62
     7
370
    15
100
AcDbLine
 10
182.2715111349
 20
138.6854149419
 30
0.0
 11
174.5567366753
 21
138.6854149419
 31
0.0
  0
LINE
  5
56
330
1F
100
AcDbEntity
  8
0
  6
Continuous
 62
     7
370
    15
100
AcDbLine
 10
129.2715080354
 20
138.6854149419
 30
0.0
 11
121.5567373011
 21
138.6854149419
 31
0.0
  0
LINE
  5
57
330
1F
100
AcDbEntity
  8
0
  6
Continuous
 62
     7
370
    15
100
AcDbLine
 10
148.0567388508
 20
142.0051005221
 30
0.0
 11
155.7715095851
 21
142.0051005221
 31
0.0
  0
LINE
  5
58
330
1F
100
AcDbEntity
  8
0
  6
Continuous
 62
     7
370
    15
100
AcDbLine
 10
207.6815840129
 20
138.6854149419
 30
0.0
 11
201.056738225
 21
138.6854149419
 31
0.0
  0
LINE
  5
59
330
1F
100
AcDbEntity
  8
0
  6
Continuous
 62
     7
370
    15
100
AcDbLine
 10
155.7715095851
 20
138.6854149419
 30
0.0
 11
148.0567388508
 21
138.6854149419
 31
0.0
  0
LINE
  5
5A
330
1F
100
AcDbEntity
  8
0
  6
Continuous
 62
     7
370
    15
100
AcDbLine
 10
174.5567366753
 20
142.0051005221
 30
0.0
 11
182.2715111349
 21
142.0051005221
 31
0.0
  0
LINE
  5
5B
330
1F
100
AcDbEntity
  8
0
  6
Continuous
 62
     7
370
    15
100
AcDbLine
 10
201.056738225
 20
142.0051005221
 30
0.0
 11
207.6815840129
 21
142.0051005221
 31
0.0
  0
LINE
  5
5C
330
1F
100
AcDbEntity
  8
0
  6
Continuous
 62
     7
370
    15
100
AcDbLine
 10
214.58326401
 20
145.1050401915
 30
0.0
 11
214.4301594972
 21
145.1018550683
 31
0.0
  0
LINE
  5
5D
330
1F
100
AcDbEntity
  8
0
  6
Continuous
 62
     7
370
    15
100
AcDbLine
 10
213.7449834127
 20
135.5854752724
 30
0.0
 11
213.8980879254
 21
135.5886603956
 31
0.0
  0
LINE
  5
5E
330
1F
100
AcDbEntity
  8
0
  6
Continuous
 62
     7
370
    15
100
AcDbLine
 10
214.4301594972
 20
135.5886603956
 30
0.0
 11
214.58326401
 21
135.5854752724
 31
0.0
  0
LINE
  5
5F
330
1F
100
AcDbEntity
  8
0
  6
Continuous
 62
     7
370
    15
100
AcDbLine
 10
213.8980879254
 20
145.1018550683
 30
0.0
 11
213.7449834127
 21
145.1050401915
 31
0.0
  0
LINE
  5
60
330
1F
100
AcDbEntity
  8
0
  6
Continuous
 62
     7
370
    15
100
AcDbLine
 10
201.4465321127
 20
135.6047922996
 30
0.0
 11
201.4659818534
 21
135.5950702232
 31
0.0
  0
LINE
  5
61
330
1F
100
AcDbEntity
  8
0
  6
Continuous
 62
     7
370
    15
100
AcDbLine
 10
201.4659818534
 20
145.0954452407
 30
0.0
 11
201.4465321127
 21
145.0857231644
 31
0.0
  0
LINE
  5
62
330
1F
100
AcDbEntity
  8
0
  6
Continuous
 62
     7
370
    15
100
AcDbLine
 10
200.8622650329
 20
135.5950702232
 30
0.0
 11
200.8817157049
 21
135.6047922996
 31
0.0
  0
LINE
  5
63
330
1F
100
AcDbEntity
  8
0
  6
Continuous
 62
     7
370
    15
100
AcDbLine
 10
200.8817157049
 20
145.0857231644
 30
0.0
 11
200.8622650329
 21
145.0954452407
 31
0.0
  0
LINE
  5
64
330
1F
100
AcDbEntity
  8
0
  6
Continuous
 62
     7
370
    15
100
AcDbLine
 10
172.0004610989
 20
143.2904922654
 30
0.0
 11
172.6073518667
 21
142.7417206828
 31
0.0
  0
LINE
  5
65
330
1F
100
AcDbEntity
  8
0
  6
Continuous
 62
     7
370
    15
100
AcDbLine
 10
119.0004579995
 20
143.2904922654
 30
0.0
 11
119.6073524926
 21
142.7417206828
 31
0.0
  0
LINE
  5
66
330
1F
100
AcDbEntity
  8
0
  6
Continuous
 62
     7
370
    15
100
AcDbLine
 10
198.500460786
 20
143.2904922654
 30
0.0
 11
199.1073506225
 21
142.7417206828
 31
0.0
  0
LINE
  5
67
330
1F
100
AcDbEntity
  8
0
  6
Continuous
 62
     7
370
    15
100
AcDbLine
 10
145.5004595492
 20
143.2904922654
 30
0.0
 11
146.1073540423
 21
142.7417206828
 31
0.0
  0
LINE
  5
68
330
1F
100
AcDbEntity
  8
0
  6
Continuous
 62
     7
370
    15
100
AcDbLine
 10
131.2209002945
 20
142.7417206828
 30
0.0
 11
131.8277873371
 21
143.2904922654
 31
0.0
  0
LINE
  5
69
330
1F
100
AcDbEntity
  8
0
  6
Continuous
 62
     7
370
    15
100
AcDbLine
 10
199.1073506225
 20
137.9487947811
 30
0.0
 11
198.500460786
 21
137.4000231986
 31
0.0
  0
LINE
  5
6A
330
1F
100
AcDbEntity
  8
0
  6
Continuous
 62
     7
370
    15
100
AcDbLine
 10
158.3277888868
 20
137.4000231986
 30
0.0
 11
157.720898119
 21
137.9487947811
 31
0.0
  0
LINE
  5
6B
330
1F
100
AcDbEntity
  8
0
  6
Continuous
 62
     7
370
    15
100
AcDbLine
 10
157.720898119
 20
142.7417206828
 30
0.0
 11
158.3277888868
 21
143.2904922654
 31
0.0
  0
LINE
  5
6C
330
1F
100
AcDbEntity
  8
0
  6
Continuous
 62
     7
370
    15
100
AcDbLine
 10
146.1073540423
 20
137.9487947811
 30
0.0
 11
145.5004595492
 21
137.4000231986
 31
0.0
  0
LINE
  5
6D
330
1F
100
AcDbEntity
  8
0
  6
Continuous
 62
     7
370
    15
100
AcDbLine
 10
119.6073524926
 20
137.9487947811
 30
0.0
 11
119.0004579995
 21
137.4000231986
 31
0.0
  0
LINE
  5
6E
330
1F
100
AcDbEntity
  8
0
  6
Continuous
 62
     7
370
    15
100
AcDbLine
 10
172.6073518667
 20
137.9487947811
 30
0.0
 11
172.0004610989
 21
137.4000231986
 31
0.0
  0
LINE
  5
6F
330
1F
100
AcDbEntity
  8
0
  6
Continuous
 62
     7
370
    15
100
AcDbLine
 10
184.2208959434
 20
142.7417206828
 30
0.0
 11
184.8277867112
 21
143.2904922654
 31
0.0
  0
LINE
  5
70
330
1F
100
AcDbEntity
  8
0
  6
Continuous
 62
     7
370
    15
100
AcDbLine
 10
184.8277867112
 20
137.4000231986
 30
0.0
 11
184.2208959434
 21
137.9487947811
 31
0.0
  0
LINE
  5
71
330
1F
100
AcDbEntity
  8
0
  6
Continuous
 62
     7
370
    15
100
AcDbLine
 10
131.8277873371
 20
137.4000231986
 30
0.0
 11
131.2209002945
 21
137.9487947811
 31
0.0
  0
LINE
  5
72
330
1F
100
AcDbEntity
  8
0
  6
Continuous
 62
     7
370
    15
100
AcDbLine
 10
198.3127247814
 20
143.4561594174
 30
0.0
 11
198.30465394
 21
143.4610032261
 31
0.0
  0
SPLINE
  5
73
330
1F
100
AcDbEntity
  8
0
  6
Continuous
 62
     7
370
    15
100
AcDbSpline
210
0.0
220
0.0
230
1.0
 70
     8
 71
     3
 72
     9
 73
     5
 74
     0
 42
0.00000001
 43
0.00000001
 40
0.0
 40
0.0
 40
0.0
 40
0.0
 40
0.9649451277207892
 40
1.0
 40
1.0
 40
1.0
 40
1.0
 10
198.3045626703426
 20
143.4609424573029
 30
0.0
 10
198.303720444006
 20
143.4615495162861
 30
0.0
 10
198.3028476209692
 20
143.4621786287255
 30
0.0
 10
198.3045783676885
 20
143.4607778238095
 30
0.0
 10
198.3046390387937
 20
143.460728718772
 30
0.0
  0
SPLINE
  5
74
330
1F
100
AcDbEntity
  8
0
  6
Continuous
 62
     7
370
    15
100
AcDbSpline
210
0.0
220
0.0
230
1.0
 70
     8
 71
     3
 72
     9
 73
     5
 74
     0
 42
0.00000001
 43
0.00000001
 40
0.0
 40
0.0
 40
0.0
 40
0.0
 40
0.9433343378918742
 40
1.0
 40
1.0
 40
1.0
 40
1.0
 10
132.0210106942579
 20
143.4586211357857
 30
0.0
 10
132.026407614703
 20
143.4623775297815
 30
0.0
 10
132.0321287256901
 20
143.4663595686461
 30
0.0
 10
132.0260772719872
 20
143.4627398971564
 30
0.0
 10
132.0257343623564
 20
143.4625347860749
 30
0.0
  0
LINE
  5
75
330
1F
100
AcDbEntity
  8
0
  6
Continuous
 62
     7
370
    15
100
AcDbLine
 10
145.3127272699
 20
143.4561594174
 30
0.0
 11
145.3046508405
 21
143.4610032261
 31
0.0
  0
SPLINE
  5
76
330
1F
100
AcDbEntity
  8
0
  6
Continuous
 62
     7
370
    15
100
AcDbSpline
210
0.0
220
0.0
230
1.0
 70
     8
 71
     3
 72
     9
 73
     5
 74
     0
 42
0.00000001
 43
0.00000001
 40
0.0
 40
0.0
 40
0.0
 40
0.0
 40
0.964945128517509
 40
1.0
 40
1.0
 40
1.0
 40
1.0
 10
145.3045614335462
 20
143.4609424573029
 30
0.0
 10
145.3037182867501
 20
143.4615495163017
 30
0.0
 10
145.3028445098157
 20
143.4621786287568
 30
0.0
 10
145.3045752678517
 20
143.4607778238094
 30
0.0
 10
145.3046359393522
 20
143.460728718772
 30
0.0
  0
LINE
  5
77
330
1F
100
AcDbEntity
  8
0
  6
Continuous
 62
     7
370
    15
100
AcDbLine
 10
118.8127257202
 20
143.4561594174
 30
0.0
 11
118.8046567414
 21
143.4610032261
 31
0.0
  0
SPLINE
  5
78
330
1F
100
AcDbEntity
  8
0
  6
Continuous
 62
     7
370
    15
100
AcDbSpline
210
0.0
220
0.0
230
1.0
 70
     8
 71
     3
 72
     9
 73
     5
 74
     0
 42
0.00000001
 43
0.00000001
 40
0.0
 40
0.0
 40
0.0
 40
0.0
 40
0.9650691532912969
 40
1.0
 40
1.0
 40
1.0
 40
1.0
 10
118.8045598838255
 20
143.4609424573029
 30
0.0
 10
118.8037505109579
 20
143.461548852637
 30
0.0
 10
118.8029118426979
 20
143.4621771965562
 30
0.0
 10
118.8045762504591
 20
143.4607782825159
 30
0.0
 10
118.8046343896315
 20
143.460729417264
 30
0.0
  0
SPLINE
  5
79
330
1F
100
AcDbEntity
  8
0
  6
Continuous
 62
     7
370
    15
100
AcDbSpline
210
0.0
220
0.0
230
1.0
 70
     8
 71
     3
 72
     9
 73
     5
 74
     0
 42
0.00000001
 43
0.00000001
 40
0.0
 40
0.0
 40
0.0
 40
0.0
 40
0.964945128517509
 40
1.0
 40
1.0
 40
1.0
 40
1.0
 10
171.804562983267
 20
143.4609424573029
 30
0.0
 10
171.8037198364709
 20
143.4615495163017
 30
0.0
 10
171.8028460595367
 20
143.4621786287568
 30
0.0
 10
171.8045768175725
 20
143.4607778238094
 30
0.0
 10
171.804637489073
 20
143.460728718772
 30
0.0
  0
SPLINE
  5
7A
330
1F
100
AcDbEntity
  8
0
  6
Continuous
 62
     7
370
    15
100
AcDbSpline
210
0.0
220
0.0
230
1.0
 70
     8
 71
     3
 72
     9
 73
     5
 74
     0
 42
0.00000001
 43
0.00000001
 40
0.0
 40
0.0
 40
0.0
 40
0.0
 40
0.9433343378918742
 40
1.0
 40
1.0
 40
1.0
 40
1.0
 10
158.5210085186884
 20
143.4586211357857
 30
0.0
 10
158.5264054391335
 20
143.4623775297815
 30
0.0
 10
158.5321265501206
 20
143.4663595686461
 30
0.0
 10
158.5260750964176
 20
143.4627398971564
 30
0.0
 10
158.5257321867868
 20
143.4625347860749
 30
0.0
  0
SPLINE
  5
7B
330
1F
100
AcDbEntity
  8
0
  6
Continuous
 62
     7
370
    15
100
AcDbSpline
210
0.0
220
0.0
230
1.0
 70
     8
 71
     3
 72
     9
 73
     5
 74
     0
 42
0.00000001
 43
0.00000001
 40
0.0
 40
0.0
 40
0.0
 40
0.0
 40
0.9433327643547963
 40
1.0
 40
1.0
 40
1.0
 40
1.0
 10
185.0210100684091
 20
143.4586211357857
 30
0.0
 10
185.0264108679767
 20
143.4623774804931
 30
0.0
 10
185.0321361006535
 20
143.4663594737508
 30
0.0
 10
185.0260735587102
 20
143.4627398974576
 30
0.0
 10
185.0257300112173
 20
143.4625347860749
 30
0.0
  0
SPLINE
  5
7C
330
1F
100
AcDbEntity
  8
0
  6
Continuous
 62
     7
370
    15
100
AcDbSpline
210
0.0
220
0.0
230
1.0
 70
     8
 71
     3
 72
     9
 73
     5
 74
     0
 42
0.00000001
 43
0.00000001
 40
0.0
 40
0.0
 40
0.0
 40
0.0
 40
0.9433312520586297
 40
1.0
 40
1.0
 40
1.0
 40
1.0
 10
198.3072374287769
 20
137.2318943281318
 30
0.0
 10
198.3018309197146
 20
137.2281380307919
 30
0.0
 10
198.2960996253781
 20
137.2241560813637
 30
0.0
 10
198.3021732985166
 20
137.2277755661704
 30
0.0
 10
198.3025174859688
 20
137.2279806778426
 30
0.0
  0
SPLINE
  5
7D
330
1F
100
AcDbEntity
  8
0
  6
Continuous
 62
     7
370
    15
100
AcDbSpline
210
0.0
220
0.0
230
1.0
 70
     8
 71
     3
 72
     9
 73
     5
 74
     0
 42
0.00000001
 43
0.00000001
 40
0.0
 40
0.0
 40
0.0
 40
0.0
 40
0.9433312520586297
 40
1.0
 40
1.0
 40
1.0
 40
1.0
 10
171.8072377417013
 20
137.2318943281318
 30
0.0
 10
171.801831232639
 20
137.2281380307919
 30
0.0
 10
171.7960999383024
 20
137.2241560813637
 30
0.0
 10
171.802173611441
 20
137.2277755661704
 30
0.0
 10
171.8025177988931
 20
137.2279806778426
 30
0.0
  0
SPLINE
  5
7E
330
1F
100
AcDbEntity
  8
0
  6
Continuous
 62
     7
370
    15
100
AcDbSpline
210
0.0
220
0.0
230
1.0
 70
     8
 71
     3
 72
     9
 73
     5
 74
     0
 42
0.00000001
 43
0.00000001
 40
0.0
 40
0.0
 40
0.0
 40
0.0
 40
0.9433281548456973
 40
1.0
 40
1.0
 40
1.0
 40
1.0
 10
145.3072361919805
 20
137.2318943281318
 30
0.0
 10
145.3018200960714
 20
137.228138127794
 30
0.0
 10
145.2960786201266
 20
137.2241562681215
 30
0.0
 10
145.3021745091821
 20
137.2277755655776
 30
0.0
 10
145.3025199744627
 20
137.2279806778426
 30
0.0
  0
SPLINE
  5
7F
330
1F
100
AcDbEntity
  8
0
  6
Continuous
 62
     7
370
    15
100
AcDbSpline
210
0.0
220
0.0
230
1.0
 70
     8
 71
     3
 72
     9
 73
     5
 74
     0
 42
0.00000001
 43
0.00000001
 40
0.0
 40
0.0
 40
0.0
 40
0.0
 40
0.9433281548456973
 40
1.0
 40
1.0
 40
1.0
 40
1.0
 10
118.8072346422598
 20
137.2318943281318
 30
0.0
 10
118.8018185463507
 20
137.228138127794
 30
0.0
 10
118.7960770704059
 20
137.2241562681215
 30
0.0
 10
118.8021729594613
 20
137.2277755655776
 30
0.0
 10
118.8025184247419
 20
137.2279806778426
 30
0.0
  0
LINE
  5
80
330
1F
100
AcDbEntity
  8
0
  6
Continuous
 62
     7
370
    15
100
AcDbLine
 10
185.0155227158
 20
137.2343560465
 30
0.0
 11
185.0235935572
 21
137.2295122378
 31
0.0
  0
SPLINE
  5
81
330
1F
100
AcDbEntity
  8
0
  6
Continuous
 62
     7
370
    15
100
AcDbSpline
210
0.0
220
0.0
230
1.0
 70
     8
 71
     3
 72
     9
 73
     5
 74
     0
 42
0.00000001
 43
0.00000001
 40
0.0
 40
0.0
 40
0.0
 40
0.0
 40
0.9650660926396273
 40
1.0
 40
1.0
 40
1.0
 40
1.0
 10
185.0236848268434
 20
137.2295730066145
 30
0.0
 10
185.0245217189961
 20
137.228966671419
 30
0.0
 10
185.0253889053567
 20
137.2283383878225
 30
0.0
 10
185.0236703566585
 20
137.2297371813307
 30
0.0
 10
185.0236103210375
 20
137.2297860466535
 30
0.0
  0
LINE
  5
82
330
1F
100
AcDbEntity
  8
0
  6
Continuous
 62
     7
370
    15
100
AcDbLine
 10
158.5155211661
 20
137.2343560465
 30
0.0
 11
158.5235938702
 21
137.2295122378
 31
0.0
  0
SPLINE
  5
83
330
1F
100
AcDbEntity
  8
0
  6
Continuous
 62
     7
370
    15
100
AcDbSpline
210
0.0
220
0.0
230
1.0
 70
     8
 71
     3
 72
     9
 73
     5
 74
     0
 42
0.00000001
 43
0.00000001
 40
0.0
 40
0.0
 40
0.0
 40
0.0
 40
0.964945128517509
 40
1.0
 40
1.0
 40
1.0
 40
1.0
 10
158.5236832771227
 20
137.2295730066145
 30
0.0
 10
158.5245264239187
 20
137.2289659476157
 30
0.0
 10
158.5254002008529
 20
137.2283368351607
 30
0.0
 10
158.5236694428172
 20
137.229737640108
 30
0.0
 10
158.5236087713167
 20
137.2297867451454
 30
0.0
  0
LINE
  5
84
330
1F
100
AcDbEntity
  8
0
  6
Continuous
 62
     7
370
    15
100
AcDbLine
 10
132.0155196164
 20
137.2343560465
 30
0.0
 11
132.0235960457
 21
137.2295122378
 31
0.0
  0
SPLINE
  5
85
330
1F
100
AcDbEntity
  8
0
  6
Continuous
 62
     7
370
    15
100
AcDbSpline
210
0.0
220
0.0
230
1.0
 70
     8
 71
     3
 72
     9
 73
     5
 74
     0
 42
0.00000001
 43
0.00000001
 40
0.0
 40
0.0
 40
0.0
 40
0.0
 40
0.9650650506798398
 40
0.9999999999999999
 40
0.9999999999999999
 40
0.9999999999999999
 40
0.9999999999999999
 10
132.0236854526922
 20
137.2295730066145
 30
0.0
 10
132.0245315163739
 20
137.22896669189
 30
0.0
 10
132.0254082072053
 20
137.2283384288272
 30
0.0
 10
132.0236716146589
 20
137.2297371813065
 30
0.0
 10
132.0236109468862
 20
137.2297860466535
 30
0.0
  0
LINE
  5
86
330
1F
100
AcDbEntity
  8
0
  6
Continuous
 62
     7
370
    15
100
AcDbLine
 10
230.6380149249
 20
141.0594809818
 30
0.0
 11
227.865085778
 21
141.0855903191
 31
0.0
  0
ELLIPSE
  5
87
330
1F
100
AcDbEntity
  8
0
  6
Continuous
 62
     7
370
    15
100
AcDbEllipse
 10
230.9626714417
 20
140.345257732
 30
0.0
 11
0.0
 21
9.323951510600551
 31
0.0
210
0.0
220
0.0
230
1.0
 40
0.0349222983
 41
1.494120299720438
 42
1.647472353869359
  0
LINE
  5
88
330
1F
100
AcDbEntity
  8
0
  6
Continuous
 62
     7
370
    15
100
AcDbLine
 10
230.6380149249
 20
139.6310344821
 30
0.0
 11
227.865085778
 21
139.6049251448
 31
0.0
  0
LINE
  5
89
330
1F
100
AcDbEntity
  8
0
  6
Continuous
 62
     7
370
    15
100
AcDbLine
 10
227.865085778
 20
139.6049251448
 30
0.0
 11
227.865085778
 21
141.0855903191
 31
0.0
  0
LINE
  5
8A
330
1F
100
AcDbEntity
  8
0
  6
Continuous
 62
     7
370
    15
100
AcDbLine
 10
230.6641236219
 20
139.6049251448
 30
0.0
 11
230.6380149249
 21
139.6310344821
 31
0.0
  0
LINE
  5
8B
330
1F
100
AcDbEntity
  8
0
  6
Continuous
 62
     7
370
    15
100
AcDbLine
 10
230.6641236219
 20
141.0855903191
 30
0.0
 11
230.6380149249
 21
141.0594809818
 31
0.0
  0
ELLIPSE
  5
8C
330
1F
100
AcDbEntity
  8
0
  6
Continuous
 62
     7
370
    15
100
AcDbEllipse
 10
230.9596246759
 20
140.345257732
 30
0.0
 11
0.0
 21
8.494364085500251
 31
0.0
210
0.0
220
0.0
230
1.0
 40
0.0349207695
 41
1.483529864195175
 42
1.658062789394622
  0
LINE
  5
8D
330
1F
100
AcDbEntity
  8
0
  6
Continuous
 62
     7
370
    15
100
AcDbLine
 10
227.865085778
 20
139.6049251448
 30
0.0
 11
230.6641236219
 21
139.6049251448
 31
0.0
  0
LINE
  5
8E
330
1F
100
AcDbEntity
  8
0
  6
Continuous
 62
     7
370
    15
100
AcDbLine
 10
227.865085778
 20
141.0855903191
 30
0.0
 11
230.6641236219
 21
141.0855903191
 31
0.0
  0
SPLINE
  5
8F
330
1F
100
AcDbEntity
  8
0
  6
Continuous
 62
     7
370
    15
100
AcDbSpline
210
0.0
220
0.0
230
1.0
 70
     8
 71
     3
 72
     8
 73
     4
 74
     0
 42
0.00000001
 43
0.00000001
 40
0.0
 40
0.0
 40
0.0
 40
0.0
 40
1.0
 40
1.0
 40
1.0
 40
1.0
 10
268.8282605898065
 20
141.7202577319587
 30
0.0
 10
269.0633424440482
 20
141.7408247292055
 30
0.0
 10
269.2838579572366
 20
141.8449919778552
 30
0.0
 10
269.4482116282454
 20
142.0093456488639
 30
0.0
  0
SPLINE
  5
90
330
1F
100
AcDbEntity
  8
0
  6
Continuous
 62
     7
370
    15
100
AcDbSpline
210
0.0
220
0.0
230
1.0
 70
     8
 71
     3
 72
     8
 73
     4
 74
     0
 42
0.00000001
 43
0.00000001
 40
0.0
 40
0.0
 40
0.0
 40
0.0
 40
1.0
 40
1.0
 40
1.0
 40
1.0
 10
295.3282605898065
 20
141.7202577319587
 30
0.0
 10
295.5633424440482
 20
141.7408247292055
 30
0.0
 10
295.7838579572365
 20
141.8449919778552
 30
0.0
 10
295.9482116282454
 20
142.0093456488639
 30
0.0
  0
SPLINE
  5
91
330
1F
100
AcDbEntity
  8
0
  6
Continuous
 62
     7
370
    15
100
AcDbSpline
210
0.0
220
0.0
230
1.0
 70
     8
 71
     3
 72
    10
 73
     6
 74
     0
 42
0.00000001
 43
0.00000001
 40
0.0
 40
0.0
 40
0.0
 40
0.0
 40
0.5
 40
0.5
 40
1.0
 40
1.0
 40
1.0
 40
1.0
 10
256.8700357944349
 20
142.0093456488639
 30
0.0
 10
256.9523259970507
 20
141.9270554462482
 30
0.0
 10
257.0474024170923
 20
141.86019738157
 30
0.0
 10
257.2602388758863
 20
141.7607488208174
 30
0.0
 10
257.3722849426342
 20
141.7305553130303
 30
0.0
 10
257.4899868328739
 20
141.7202577319587
 30
0.0
  0
SPLINE
  5
92
330
1F
100
AcDbEntity
  8
0
  6
Continuous
 62
     7
370
    15
100
AcDbSpline
210
0.0
220
0.0
230
1.0
 70
     8
 71
     3
 72
    10
 73
     6
 74
     0
 42
0.00000001
 43
0.00000001
 40
0.0
 40
0.0
 40
0.0
 40
0.0
 40
0.5
 40
0.5
 40
1.0
 40
1.0
 40
1.0
 40
1.0
 10
295.9482116282454
 20
138.6811698150535
 30
0.0
 10
295.8659214256296
 20
138.7634600176692
 30
0.0
 10
295.7708450055881
 20
138.8303180823475
 30
0.0
 10
295.5580085467939
 20
138.9297666431001
 30
0.0
 10
295.4459624800461
 20
138.9599601508872
 30
0.0
 10
295.3282605898065
 20
138.9702577319587
 30
0.0
  0
SPLINE
  5
93
330
1F
100
AcDbEntity
  8
0
  6
Continuous
 62
     7
370
    15
100
AcDbSpline
210
0.0
220
0.0
230
1.0
 70
     8
 71
     3
 72
    10
 73
     6
 74
     0
 42
0.00000001
 43
0.00000001
 40
0.0
 40
0.0
 40
0.0
 40
0.0
 40
0.5
 40
0.5
 40
1.0
 40
1.0
 40
1.0
 40
1.0
 10
242.9482116282453
 20
138.6811698150535
 30
0.0
 10
242.8659214256296
 20
138.7634600176692
 30
0.0
 10
242.770845005588
 20
138.8303180823475
 30
0.0
 10
242.5580085467939
 20
138.9297666431001
 30
0.0
 10
242.4459624800461
 20
138.9599601508872
 30
0.0
 10
242.3282605898065
 20
138.9702577319587
 30
0.0
  0
SPLINE
  5
94
330
1F
100
AcDbEntity
  8
0
  6
Continuous
 62
     7
370
    15
100
AcDbSpline
210
0.0
220
0.0
230
1.0
 70
     8
 71
     3
 72
     8
 73
     4
 74
     0
 42
0.00000001
 43
0.00000001
 40
0.0
 40
0.0
 40
0.0
 40
0.0
 40
1.0
 40
1.0
 40
1.0
 40
1.0
 10
283.9899868328738
 20
138.9702577319587
 30
0.0
 10
283.7549049786321
 20
138.9496907347119
 30
0.0
 10
283.5343894654437
 20
138.8455234860623
 30
0.0
 10
283.370035794435
 20
138.6811698150535
 30
0.0
  0
SPLINE
  5
95
330
1F
100
AcDbEntity
  8
0
  6
Continuous
 62
     7
370
    15
100
AcDbSpline
210
0.0
220
0.0
230
1.0
 70
     8
 71
     3
 72
     8
 73
     4
 74
     0
 42
0.00000001
 43
0.00000001
 40
0.0
 40
0.0
 40
0.0
 40
0.0
 40
1.0
 40
1.0
 40
1.0
 40
1.0
 10
230.9899868328738
 20
138.9702577319587
 30
0.0
 10
230.7549049786321
 20
138.9496907347119
 30
0.0
 10
230.5343894654437
 20
138.8455234860623
 30
0.0
 10
230.3700357944349
 20
138.6811698150535
 30
0.0
  0
SPLINE
  5
96
330
1F
100
AcDbEntity
  8
0
  6
Continuous
 62
     7
370
    15
100
AcDbSpline
210
0.0
220
0.0
230
1.0
 70
     8
 71
     3
 72
    10
 73
     6
 74
     0
 42
0.00000001
 43
0.00000001
 40
0.0
 40
0.0
 40
0.0
 40
0.0
 40
0.5
 40
0.5
 40
1.0
 40
1.0
 40
1.0
 40
1.0
 10
283.370035794435
 20
142.0093456488639
 30
0.0
 10
283.4523259970506
 20
141.9270554462482
 30
0.0
 10
283.5474024170922
 20
141.86019738157
 30
0.0
 10
283.7602388758864
 20
141.7607488208174
 30
0.0
 10
283.8722849426342
 20
141.7305553130302
 30
0.0
 10
283.9899868328739
 20
141.7202577319587
 30
0.0
  0
SPLINE
  5
97
330
1F
100
AcDbEntity
  8
0
  6
Continuous
 62
     7
370
    15
100
AcDbSpline
210
0.0
220
0.0
230
1.0
 70
     8
 71
     3
 72
    10
 73
     6
 74
     0
 42
0.00000001
 43
0.00000001
 40
0.0
 40
0.0
 40
0.0
 40
0.0
 40
0.5
 40
0.5
 40
1.0
 40
1.0
 40
1.0
 40
1.0
 10
230.3700357944349
 20
142.0093456488639
 30
0.0
 10
230.4523259970507
 20
141.9270554462482
 30
0.0
 10
230.5474024170922
 20
141.86019738157
 30
0.0
 10
230.7602388758863
 20
141.7607488208174
 30
0.0
 10
230.8722849426342
 20
141.7305553130302
 30
0.0
 10
230.9899868328738
 20
141.7202577319587
 30
0.0
  0
SPLINE
  5
98
330
1F
100
AcDbEntity
  8
0
  6
Continuous
 62
     7
370
    15
100
AcDbSpline
210
0.0
220
0.0
230
1.0
 70
     8
 71
     3
 72
     8
 73
     4
 74
     0
 42
0.00000001
 43
0.00000001
 40
0.0
 40
0.0
 40
0.0
 40
0.0
 40
1.0
 40
1.0
 40
1.0
 40
1.0
 10
257.4899868328739
 20
138.9702577319587
 30
0.0
 10
257.2549049786321
 20
138.9496907347119
 30
0.0
 10
257.0343894654437
 20
138.8455234860623
 30
0.0
 10
256.8700357944349
 20
138.6811698150535
 30
0.0
  0
SPLINE
  5
99
330
1F
100
AcDbEntity
  8
0
  6
Continuous
 62
     7
370
    15
100
AcDbSpline
210
0.0
220
0.0
230
1.0
 70
     8
 71
     3
 72
     8
 73
     4
 74
     0
 42
0.00000001
 43
0.00000001
 40
0.0
 40
0.0
 40
0.0
 40
0.0
 40
1.0
 40
1.0
 40
1.0
 40
1.0
 10
242.3282605898064
 20
141.7202577319587
 30
0.0
 10
242.5633424440482
 20
141.7408247292055
 30
0.0
 10
242.7838579572366
 20
141.8449919778552
 30
0.0
 10
242.9482116282453
 20
142.0093456488639
 30
0.0
  0
SPLINE
  5
9A
330
1F
100
AcDbEntity
  8
0
  6
Continuous
 62
     7
370
    15
100
AcDbSpline
210
0.0
220
0.0
230
1.0
 70
     8
 71
     3
 72
    10
 73
     6
 74
     0
 42
0.00000001
 43
0.00000001
 40
0.0
 40
0.0
 40
0.0
 40
0.0
 40
0.5
 40
0.5
 40
1.0
 40
1.0
 40
1.0
 40
1.0
 10
269.4482116282454
 20
138.6811698150535
 30
0.0
 10
269.3659214256297
 20
138.7634600176692
 30
0.0
 10
269.2708450055881
 20
138.8303180823475
 30
0.0
 10
269.058008546794
 20
138.9297666431001
 30
0.0
 10
268.945962480046
 20
138.9599601508872
 30
0.0
 10
268.8282605898065
 20
138.9702577319587
 30
0.0
  0
SPLINE
  5
9B
330
1F
100
AcDbEntity
  8
0
  6
Continuous
 62
     7
370
    15
100
AcDbSpline
210
0.0
220
0.0
230
1.0
 70
     8
 71
     3
 72
    10
 73
     6
 74
     0
 42
0.00000001
 43
0.00000001
 40
0.0
 40
0.0
 40
0.0
 40
0.0
 40
0.5
 40
0.5
 40
1.0
 40
1.0
 40
1.0
 40
1.0
 10
221.0871864090263
 20
138.1571571337907
 30
0.0
 10
220.9702986108166
 20
138.29288382831
 30
0.0
 10
220.8806954598708
 20
138.4449960009468
 30
0.0
 10
220.756577483182
 20
138.7805779863374
 30
0.0
 10
220.7255980188186
 20
138.9542093368277
 30
0.0
 10
220.7259390585908
 20
139.1337824896919
 30
0.0
  0
SPLINE
  5
9C
330
1F
100
AcDbEntity
  8
0
  6
Continuous
 62
     7
370
    15
100
AcDbSpline
210
0.0
220
0.0
230
1.0
 70
     8
 71
     3
 72
    10
 73
     6
 74
     0
 42
0.00000001
 43
0.00000001
 40
0.0
 40
0.0
 40
0.0
 40
0.0
 40
0.5
 40
0.5
 40
1.0
 40
1.0
 40
1.0
 40
1.0
 10
220.7259390585908
 20
141.5567329742256
 30
0.0
 10
220.7255980216603
 20
141.7363046307866
 30
0.0
 10
220.7566075676903
 20
141.9101189314106
 30
0.0
 10
220.880866336356
 20
142.2458811921133
 30
0.0
 10
220.970299224975
 20
142.3976323487502
 30
0.0
 10
221.0871864090263
 20
142.5333583301267
 30
0.0
  0
SPLINE
  5
9D
330
1F
100
AcDbEntity
  8
0
  6
Continuous
 62
     7
370
    15
100
AcDbSpline
210
0.0
220
0.0
230
1.0
 70
     8
 71
     3
 72
    10
 73
     6
 74
     0
 42
0.00000001
 43
0.00000001
 40
0.0
 40
0.0
 40
0.0
 40
0.0
 40
0.5
 40
0.5
 40
1.0
 40
1.0
 40
1.0
 40
1.0
 10
307.6023083640895
 20
139.1337824896918
 30
0.0
 10
307.60264940102
 20
138.9542108331307
 30
0.0
 10
307.57163985499
 20
138.7803965325066
 30
0.0
 10
307.4473810863241
 20
138.4446342718039
 30
0.0
 10
307.3579481977052
 20
138.2928831151669
 30
0.0
 10
307.2410610136538
 20
138.1571571337905
 30
0.0
  0
LINE
  5
9E
330
1F
100
AcDbEntity
  8
0
  6
Continuous
 62
     7
370
    15
100
AcDbLine
 10
295.3282602403
 20
138.9702577394
 30
0.0
 11
283.9899890397
 21
138.9702577394
 31
0.0
  0
LINE
  5
9F
330
1F
100
AcDbEntity
  8
0
  6
Continuous
 62
     7
370
    15
100
AcDbLine
 10
283.9899890397
 20
141.7202577245
 30
0.0
 11
295.3282602403
 21
141.7202577245
 31
0.0
  0
LINE
  5
A0
330
1F
100
AcDbEntity
  8
0
  6
Continuous
 62
     7
370
    15
100
AcDbLine
 10
242.3282608662
 20
138.9702577394
 30
0.0
 11
230.9899859402
 21
138.9702577394
 31
0.0
  0
LINE
  5
A1
330
1F
100
AcDbEntity
  8
0
  6
Continuous
 62
     7
370
    15
100
AcDbLine
 10
230.9899859402
 20
141.7202577245
 30
0.0
 11
242.3282608662
 21
141.7202577245
 31
0.0
  0
LINE
  5
A2
330
1F
100
AcDbEntity
  8
0
  6
Continuous
 62
     7
370
    15
100
AcDbLine
 10
268.8282624159
 20
138.9702577394
 30
0.0
 11
257.4899874899
 21
138.9702577394
 31
0.0
  0
LINE
  5
A3
330
1F
100
AcDbEntity
  8
0
  6
Continuous
 62
     7
370
    15
100
AcDbLine
 10
257.4899874899
 20
141.7202577245
 30
0.0
 11
268.8282624159
 21
141.7202577245
 31
0.0
  0
SPLINE
  5
A4
330
1F
100
AcDbEntity
  8
0
  6
Continuous
 62
     7
370
    15
100
AcDbSpline
210
0.0
220
0.0
230
1.0
 70
     8
 71
     3
 72
    10
 73
     6
 74
     0
 42
0.00000001
 43
0.00000001
 40
0.0
 40
0.0
 40
0.0
 40
0.0
 40
0.5
 40
0.5
 40
1.0
 40
1.0
 40
1.0
 40
1.0
 10
271.867541147279
 20
137.4961537793183
 30
0.0
 10
271.5245502052171
 20
137.4961537793183
 30
0.0
 10
271.1921402009976
 20
137.5532868784931
 30
0.0
 10
270.5479724397664
 20
137.7803904500931
 30
0.0
 10
270.2539167161583
 20
137.944278494555
 30
0.0
 10
269.988576744655
 20
138.1574591062856
 30
0.0
  0
SPLINE
  5
A5
330
1F
100
AcDbEntity
  8
0
  6
Continuous
 62
     7
370
    15
100
AcDbSpline
210
0.0
220
0.0
230
1.0
 70
     8
 71
     3
 72
    10
 73
     6
 74
     0
 42
0.00000001
 43
0.00000001
 40
0.0
 40
0.0
 40
0.0
 40
0.0
 40
0.5
 40
0.5
 40
1.0
 40
1.0
 40
1.0
 40
1.0
 10
245.367541147279
 20
137.4961537793183
 30
0.0
 10
245.0245502052171
 20
137.4961537793183
 30
0.0
 10
244.6921402009976
 20
137.553286878493
 30
0.0
 10
244.0479724397665
 20
137.7803904500931
 30
0.0
 10
243.7539167161583
 20
137.944278494555
 30
0.0
 10
243.488576744655
 20
138.1574591062855
 30
0.0
  0
SPLINE
  5
A6
330
1F
100
AcDbEntity
  8
0
  6
Continuous
 62
     7
370
    15
100
AcDbSpline
210
0.0
220
0.0
230
1.0
 70
     8
 71
     3
 72
    10
 73
     6
 74
     0
 42
0.00000001
 43
0.00000001
 40
0.0
 40
0.0
 40
0.0
 40
0.0
 40
0.5
 40
0.5
 40
1.0
 40
1.0
 40
1.0
 40
1.0
 10
227.9507062754013
 20
143.1943616845991
 30
0.0
 10
228.2936972174632
 20
143.1943616845991
 30
0.0
 10
228.6261072216827
 20
143.1372285854244
 30
0.0
 10
229.2702749829138
 20
142.9101250138244
 30
0.0
 10
229.5643307065219
 20
142.7462369693624
 30
0.0
 10
229.8296706780252
 20
142.5330563576319
 30
0.0
  0
SPLINE
  5
A7
330
1F
100
AcDbEntity
  8
0
  6
Continuous
 62
     7
370
    15
100
AcDbSpline
210
0.0
220
0.0
230
1.0
 70
     8
 71
     3
 72
    10
 73
     6
 74
     0
 42
0.00000001
 43
0.00000001
 40
0.0
 40
0.0
 40
0.0
 40
0.0
 40
0.5
 40
0.5
 40
1.0
 40
1.0
 40
1.0
 40
1.0
 10
254.4507062754013
 20
143.1943616845991
 30
0.0
 10
254.7936972174631
 20
143.1943616845991
 30
0.0
 10
255.1261072216827
 20
143.1372285854244
 30
0.0
 10
255.7702749829138
 20
142.9101250138244
 30
0.0
 10
256.0643307065219
 20
142.7462369693625
 30
0.0
 10
256.3296706780252
 20
142.533056357632
 30
0.0
  0
SPLINE
  5
A8
330
1F
100
AcDbEntity
  8
0
  6
Continuous
 62
     7
370
    15
100
AcDbSpline
210
0.0
220
0.0
230
1.0
 70
     8
 71
     3
 72
    10
 73
     6
 74
     0
 42
0.00000001
 43
0.00000001
 40
0.0
 40
0.0
 40
0.0
 40
0.0
 40
0.5
 40
0.5
 40
1.0
 40
1.0
 40
1.0
 40
1.0
 10
280.9507062754013
 20
143.1943616845991
 30
0.0
 10
281.2936972174631
 20
143.1943616845991
 30
0.0
 10
281.6261072216827
 20
143.1372285854244
 30
0.0
 10
282.2702749829137
 20
142.9101250138244
 30
0.0
 10
282.5643307065218
 20
142.7462369693625
 30
0.0
 10
282.8296706780252
 20
142.533056357632
 30
0.0
  0
SPLINE
  5
A9
330
1F
100
AcDbEntity
  8
0
  6
Continuous
 62
     7
370
    15
100
AcDbSpline
210
0.0
220
0.0
230
1.0
 70
     8
 71
     3
 72
    10
 73
     6
 74
     0
 42
0.00000001
 43
0.00000001
 40
0.0
 40
0.0
 40
0.0
 40
0.0
 40
0.5
 40
0.5
 40
1.0
 40
1.0
 40
1.0
 40
1.0
 10
298.3675411472789
 20
137.4961537793183
 30
0.0
 10
298.0245502052171
 20
137.4961537793183
 30
0.0
 10
297.6921402009975
 20
137.5532868784931
 30
0.0
 10
297.0479724397665
 20
137.7803904500931
 30
0.0
 10
296.7539167161584
 20
137.944278494555
 30
0.0
 10
296.4885767446551
 20
138.1574591062855
 30
0.0
  0
SPLINE
  5
AA
330
1F
100
AcDbEntity
  8
0
  6
Continuous
 62
     7
370
    15
100
AcDbSpline
210
0.0
220
0.0
230
1.0
 70
     8
 71
     3
 72
    10
 73
     6
 74
     0
 42
0.00000001
 43
0.00000001
 40
0.0
 40
0.0
 40
0.0
 40
0.0
 40
0.5
 40
0.5
 40
1.0
 40
1.0
 40
1.0
 40
1.0
 10
296.4885767446549
 20
142.5330563576318
 30
0.0
 10
296.7539113900333
 20
142.7462326902236
 30
0.0
 10
297.0470369963798
 20
142.9096322021752
 30
0.0
 10
297.6905312119839
 20
143.1368237053687
 30
0.0
 10
298.0245552282005
 20
143.1943616845992
 30
0.0
 10
298.367541147279
 20
143.1943616845992
 30
0.0
  0
SPLINE
  5
AB
330
1F
100
AcDbEntity
  8
0
  6
Continuous
 62
     7
370
    15
100
AcDbSpline
210
0.0
220
0.0
230
1.0
 70
     8
 71
     3
 72
    10
 73
     6
 74
     0
 42
0.00000001
 43
0.00000001
 40
0.0
 40
0.0
 40
0.0
 40
0.0
 40
0.5
 40
0.5
 40
1.0
 40
1.0
 40
1.0
 40
1.0
 10
243.4885767446549
 20
142.5330563576318
 30
0.0
 10
243.7539113900334
 20
142.7462326902236
 30
0.0
 10
244.0470369963798
 20
142.9096322021752
 30
0.0
 10
244.6905312119839
 20
143.1368237053687
 30
0.0
 10
245.0245552282005
 20
143.1943616845992
 30
0.0
 10
245.367541147279
 20
143.1943616845992
 30
0.0
  0
SPLINE
  5
AC
330
1F
100
AcDbEntity
  8
0
  6
Continuous
 62
     7
370
    15
100
AcDbSpline
210
0.0
220
0.0
230
1.0
 70
     8
 71
     3
 72
    10
 73
     6
 74
     0
 42
0.00000001
 43
0.00000001
 40
0.0
 40
0.0
 40
0.0
 40
0.0
 40
0.5
 40
0.5
 40
1.0
 40
1.0
 40
1.0
 40
1.0
 10
269.9885767446549
 20
142.5330563576319
 30
0.0
 10
270.2539113900334
 20
142.7462326902236
 30
0.0
 10
270.5470369963798
 20
142.9096322021752
 30
0.0
 10
271.190531211984
 20
143.1368237053687
 30
0.0
 10
271.5245552282005
 20
143.1943616845992
 30
0.0
 10
271.867541147279
 20
143.1943616845992
 30
0.0
  0
SPLINE
  5
AD
330
1F
100
AcDbEntity
  8
0
  6
Continuous
 62
     7
370
    15
100
AcDbSpline
210
0.0
220
0.0
230
1.0
 70
     8
 71
     3
 72
    10
 73
     6
 74
     0
 42
0.00000001
 43
0.00000001
 40
0.0
 40
0.0
 40
0.0
 40
0.0
 40
0.5
 40
0.5
 40
1.0
 40
1.0
 40
1.0
 40
1.0
 10
229.8296706780253
 20
138.1574591062855
 30
0.0
 10
229.5643360326468
 20
137.9442827736938
 30
0.0
 10
229.2712104263004
 20
137.7808832617422
 30
0.0
 10
228.6277162106963
 20
137.5536917585487
 30
0.0
 10
228.2936921944798
 20
137.4961537793183
 30
0.0
 10
227.9507062754013
 20
137.4961537793183
 30
0.0
  0
SPLINE
  5
AE
330
1F
100
AcDbEntity
  8
0
  6
Continuous
 62
     7
370
    15
100
AcDbSpline
210
0.0
220
0.0
230
1.0
 70
     8
 71
     3
 72
    10
 73
     6
 74
     0
 42
0.00000001
 43
0.00000001
 40
0.0
 40
0.0
 40
0.0
 40
0.0
 40
0.5
 40
0.5
 40
1.0
 40
1.0
 40
1.0
 40
1.0
 10
256.3296706780253
 20
138.1574591062855
 30
0.0
 10
256.0643360326468
 20
137.9442827736938
 30
0.0
 10
255.7712104263003
 20
137.7808832617422
 30
0.0
 10
255.1277162106963
 20
137.5536917585487
 30
0.0
 10
254.7936921944798
 20
137.4961537793183
 30
0.0
 10
254.4507062754013
 20
137.4961537793183
 30
0.0
  0
SPLINE
  5
AF
330
1F
100
AcDbEntity
  8
0
  6
Continuous
 62
     7
370
    15
100
AcDbSpline
210
0.0
220
0.0
230
1.0
 70
     8
 71
     3
 72
    10
 73
     6
 74
     0
 42
0.00000001
 43
0.00000001
 40
0.0
 40
0.0
 40
0.0
 40
0.0
 40
0.5
 40
0.5
 40
1.0
 40
1.0
 40
1.0
 40
1.0
 10
282.8296706780252
 20
138.1574591062855
 30
0.0
 10
282.5643360326467
 20
137.9442827736937
 30
0.0
 10
282.2712104263003
 20
137.7808832617422
 30
0.0
 10
281.6277162106963
 20
137.5536917585487
 30
0.0
 10
281.2936921944798
 20
137.4961537793183
 30
0.0
 10
280.9507062754013
 20
137.4961537793183
 30
0.0
  0
LWPOLYLINE
  5
B0
330
1F
100
AcDbEntity
  8
0
  6
Continuous
 62
     7
370
    15
100
AcDbPolyline
 90
        3
 70
   128
 43
0.0
 10
269.4482103262
 20
142.0093456068
 10
269.6380436692
 20
142.1991794155
 10
269.8270052943
 20
142.3881401092
  0
LWPOLYLINE
  5
B1
330
1F
100
AcDbEntity
  8
0
  6
Continuous
 62
     7
370
    15
100
AcDbPolyline
 90
        3
 70
   128
 43
0.0
 10
296.3270031187
 20
138.3023753547
 10
296.1380489442
 20
138.4913360485
 10
295.9482081506
 20
138.6811698571
  0
LWPOLYLINE
  5
B2
330
1F
100
AcDbEntity
  8
0
  6
Continuous
 62
     7
370
    15
100
AcDbPolyline
 90
        3
 70
   128
 43
0.0
 10
295.9482081506
 20
142.0093456068
 10
296.1380489442
 20
142.1991794155
 10
296.3270031187
 20
142.3881401092
  0
LWPOLYLINE
  5
B3
330
1F
100
AcDbEntity
  8
0
  6
Continuous
 62
     7
370
    15
100
AcDbPolyline
 90
        3
 70
   128
 43
0.0
 10
282.9912387106
 20
142.3881401092
 10
283.1802003357
 20
142.1991794155
 10
283.3700336788
 20
142.0093456068
  0
LWPOLYLINE
  5
B4
330
1F
100
AcDbEntity
  8
0
  6
Continuous
 62
     7
370
    15
100
AcDbPolyline
 90
        3
 70
   128
 43
0.0
 10
229.9912411991
 20
142.3881401092
 10
230.1802028242
 20
142.1991794155
 10
230.3700361673
 20
142.0093456068
  0
LWPOLYLINE
  5
B5
330
1F
100
AcDbEntity
  8
0
  6
Continuous
 62
     7
370
    15
100
AcDbPolyline
 90
        3
 70
   128
 43
0.0
 10
242.9482125018
 20
142.0093456068
 10
243.1380458448
 20
142.1991794155
 10
243.3270056072
 20
142.3881401092
  0
LWPOLYLINE
  5
B6
330
1F
100
AcDbEntity
  8
0
  6
Continuous
 62
     7
370
    15
100
AcDbPolyline
 90
        3
 70
   128
 43
0.0
 10
243.3270056072
 20
138.3023753547
 10
243.1380458448
 20
138.4913360485
 10
242.9482125018
 20
138.6811698571
  0
LWPOLYLINE
  5
B7
330
1F
100
AcDbEntity
  8
0
  6
Continuous
 62
     7
370
    15
100
AcDbPolyline
 90
        3
 70
   128
 43
0.0
 10
283.3700336788
 20
138.6811698571
 10
283.1802003357
 20
138.4913360485
 10
282.9912387106
 20
138.3023753547
  0
LWPOLYLINE
  5
B8
330
1F
100
AcDbEntity
  8
0
  6
Continuous
 62
     7
370
    15
100
AcDbPolyline
 90
        3
 70
   128
 43
0.0
 10
256.4912408862
 20
142.3881401092
 10
256.6802025113
 20
142.1991794155
 10
256.8700358543
 20
142.0093456068
  0
LWPOLYLINE
  5
B9
330
1F
100
AcDbEntity
  8
0
  6
Continuous
 62
     7
370
    15
100
AcDbPolyline
 90
        3
 70
   128
 43
0.0
 10
256.8700358543
 20
138.6811698571
 10
256.6802025113
 20
138.4913360485
 10
256.4912408862
 20
138.3023753547
  0
LWPOLYLINE
  5
BA
330
1F
100
AcDbEntity
  8
0
  6
Continuous
 62
     7
370
    15
100
AcDbPolyline
 90
        3
 70
   128
 43
0.0
 10
230.3700361673
 20
138.6811698571
 10
230.1802028242
 20
138.4913360485
 10
229.9912411991
 20
138.3023753547
  0
LWPOLYLINE
  5
BB
330
1F
100
AcDbEntity
  8
0
  6
Continuous
 62
     7
370
    15
100
AcDbPolyline
 90
        3
 70
   128
 43
0.0
 10
269.8270052943
 20
138.3023753547
 10
269.6380436692
 20
138.4913360485
 10
269.4482103262
 20
138.6811698571
  0
SPLINE
  5
BC
330
1F
100
AcDbEntity
  8
0
  6
Continuous
 62
     7
370
    15
100
AcDbSpline
210
0.0
220
0.0
230
1.0
 70
     8
 71
     3
 72
    10
 73
     6
 74
     0
 42
0.00000001
 43
0.00000001
 40
0.0
 40
0.0
 40
0.0
 40
0.0
 40
0.5
 40
0.5
 40
1.0
 40
1.0
 40
1.0
 40
1.0
 10
221.0871864090263
 20
142.5333583301267
 30
0.0
 10
221.2286316157338
 20
142.6976003695528
 30
0.0
 10
221.393243779414
 20
142.8358652614448
 30
0.0
 10
221.7664678284589
 20
143.0579736299945
 30
0.0
 10
221.966390693174
 20
143.1368830747578
 30
0.0
 10
222.1800260770509
 20
143.1830706097706
 30
0.0
  0
SPLINE
  5
BD
330
1F
100
AcDbEntity
  8
0
  6
Continuous
 62
     7
370
    15
100
AcDbSpline
210
0.0
220
0.0
230
1.0
 70
     8
 71
     3
 72
    10
 73
     6
 74
     0
 42
0.00000001
 43
0.00000001
 40
0.0
 40
0.0
 40
0.0
 40
0.0
 40
0.5
 40
0.5
 40
1.0
 40
1.0
 40
1.0
 40
1.0
 10
307.2410610136538
 20
138.1571571337905
 30
0.0
 10
307.0996158069464
 20
137.9929150943645
 30
0.0
 10
306.9350036432662
 20
137.8546502024726
 30
0.0
 10
306.5617795942216
 20
137.632541833923
 30
0.0
 10
306.3618567295066
 20
137.5536323891597
 30
0.0
 10
306.1482213456298
 20
137.5074448541469
 30
0.0
  0
SPLINE
  5
BE
330
1F
100
AcDbEntity
  8
0
  6
Continuous
 62
     7
370
    15
100
AcDbSpline
210
0.0
220
0.0
230
1.0
 70
     8
 71
     3
 72
    10
 73
     6
 74
     0
 42
0.00000001
 43
0.00000001
 40
0.0
 40
0.0
 40
0.0
 40
0.0
 40
0.5
 40
0.5
 40
1.0
 40
1.0
 40
1.0
 40
1.0
 10
306.1482213456294
 20
143.1830706097706
 30
0.0
 10
306.3618517558039
 20
143.1368841500621
 30
0.0
 10
306.5629701231655
 20
143.0574136336111
 30
0.0
 10
306.9358393958497
 20
142.8352185938039
 30
0.0
 10
307.0996177398475
 20
142.6975981251247
 30
0.0
 10
307.241061013654
 20
142.5333583301266
 30
0.0
  0
SPLINE
  5
BF
330
1F
100
AcDbEntity
  8
0
  6
Continuous
 62
     7
370
    15
100
AcDbSpline
210
0.0
220
0.0
230
1.0
 70
     8
 71
     3
 72
    10
 73
     6
 74
     0
 42
0.00000001
 43
0.00000001
 40
0.0
 40
0.0
 40
0.0
 40
0.0
 40
0.5
 40
0.5
 40
1.0
 40
1.0
 40
1.0
 40
1.0
 10
222.1800260770509
 20
137.5074448541468
 30
0.0
 10
221.9663956668764
 20
137.5536313138553
 30
0.0
 10
221.7652772995148
 20
137.6331018303063
 30
0.0
 10
221.3924080268306
 20
137.8552968701135
 30
0.0
 10
221.2286296828329
 20
137.9929173387927
 30
0.0
 10
221.0871864090263
 20
138.1571571337907
 30
0.0
  0
SPLINE
  5
C0
330
1F
100
AcDbEntity
  8
0
  6
Continuous
 62
     7
370
    15
100
AcDbSpline
210
0.0
220
0.0
230
1.0
 70
     8
 71
     3
 72
     8
 73
     4
 74
     0
 42
0.00000001
 43
0.00000001
 40
0.0
 40
0.0
 40
0.0
 40
0.0
 40
1.0
 40
1.0
 40
1.0
 40
1.0
 10
296.3270061173645
 20
142.3881401379831
 30
0.0
 10
296.3782216593436
 20
142.4393556799621
 30
0.0
 10
296.4320741383651
 20
142.4876607841531
 30
0.0
 10
296.4885767446549
 20
142.5330563576319
 30
0.0
  0
SPLINE
  5
C1
330
1F
100
AcDbEntity
  8
0
  6
Continuous
 62
     7
370
    15
100
AcDbSpline
210
0.0
220
0.0
230
1.0
 70
     8
 71
     3
 72
     8
 73
     4
 74
     0
 42
0.00000001
 43
0.00000001
 40
0.0
 40
0.0
 40
0.0
 40
0.0
 40
1.0
 40
1.0
 40
1.0
 40
1.0
 10
269.988576744655
 20
138.1574591062856
 30
0.0
 10
269.9320741383652
 20
138.2028546797643
 30
0.0
 10
269.8782216593436
 20
138.2511597839553
 30
0.0
 10
269.8270061173645
 20
138.3023753259343
 30
0.0
  0
SPLINE
  5
C2
330
1F
100
AcDbEntity
  8
0
  6
Continuous
 62
     7
370
    15
100
AcDbSpline
210
0.0
220
0.0
230
1.0
 70
     8
 71
     3
 72
     8
 73
     4
 74
     0
 42
0.00000001
 43
0.00000001
 40
0.0
 40
0.0
 40
0.0
 40
0.0
 40
1.0
 40
1.0
 40
1.0
 40
1.0
 10
243.3270061173645
 20
142.3881401379831
 30
0.0
 10
243.3782216593436
 20
142.4393556799621
 30
0.0
 10
243.4320741383651
 20
142.4876607841531
 30
0.0
 10
243.4885767446549
 20
142.5330563576319
 30
0.0
  0
SPLINE
  5
C3
330
1F
100
AcDbEntity
  8
0
  6
Continuous
 62
     7
370
    15
100
AcDbSpline
210
0.0
220
0.0
230
1.0
 70
     8
 71
     3
 72
     8
 73
     4
 74
     0
 42
0.00000001
 43
0.00000001
 40
0.0
 40
0.0
 40
0.0
 40
0.0
 40
1.0
 40
1.0
 40
1.0
 40
1.0
 10
269.8270061173645
 20
142.3881401379832
 30
0.0
 10
269.8782216593436
 20
142.4393556799621
 30
0.0
 10
269.9320741383652
 20
142.4876607841532
 30
0.0
 10
269.9885767446549
 20
142.5330563576319
 30
0.0
  0
SPLINE
  5
C4
330
1F
100
AcDbEntity
  8
0
  6
Continuous
 62
     7
370
    15
100
AcDbSpline
210
0.0
220
0.0
230
1.0
 70
     8
 71
     3
 72
     8
 73
     4
 74
     0
 42
0.00000001
 43
0.00000001
 40
0.0
 40
0.0
 40
0.0
 40
0.0
 40
1.0
 40
1.0
 40
1.0
 40
1.0
 10
243.488576744655
 20
138.1574591062855
 30
0.0
 10
243.4320741383653
 20
138.2028546797642
 30
0.0
 10
243.3782216593436
 20
138.2511597839552
 30
0.0
 10
243.3270061173646
 20
138.3023753259343
 30
0.0
  0
SPLINE
  5
C5
330
1F
100
AcDbEntity
  8
0
  6
Continuous
 62
     7
370
    15
100
AcDbSpline
210
0.0
220
0.0
230
1.0
 70
     8
 71
     3
 72
     8
 73
     4
 74
     0
 42
0.00000001
 43
0.00000001
 40
0.0
 40
0.0
 40
0.0
 40
0.0
 40
1.0
 40
1.0
 40
1.0
 40
1.0
 10
256.3296706780252
 20
142.533056357632
 30
0.0
 10
256.386173284315
 20
142.4876607841532
 30
0.0
 10
256.4400257633366
 20
142.4393556799622
 30
0.0
 10
256.4912413053157
 20
142.3881401379832
 30
0.0
  0
SPLINE
  5
C6
330
1F
100
AcDbEntity
  8
0
  6
Continuous
 62
     7
370
    15
100
AcDbSpline
210
0.0
220
0.0
230
1.0
 70
     8
 71
     3
 72
     8
 73
     4
 74
     0
 42
0.00000001
 43
0.00000001
 40
0.0
 40
0.0
 40
0.0
 40
0.0
 40
1.0
 40
1.0
 40
1.0
 40
1.0
 10
229.8296706780252
 20
142.533056357632
 30
0.0
 10
229.886173284315
 20
142.4876607841532
 30
0.0
 10
229.9400257633367
 20
142.4393556799622
 30
0.0
 10
229.9912413053157
 20
142.3881401379832
 30
0.0
  0
SPLINE
  5
C7
330
1F
100
AcDbEntity
  8
0
  6
Continuous
 62
     7
370
    15
100
AcDbSpline
210
0.0
220
0.0
230
1.0
 70
     8
 71
     3
 72
     8
 73
     4
 74
     0
 42
0.00000001
 43
0.00000001
 40
0.0
 40
0.0
 40
0.0
 40
0.0
 40
1.0
 40
1.0
 40
1.0
 40
1.0
 10
229.9912413053157
 20
138.3023753259343
 30
0.0
 10
229.9400257633367
 20
138.2511597839552
 30
0.0
 10
229.8861732843151
 20
138.2028546797642
 30
0.0
 10
229.8296706780253
 20
138.1574591062855
 30
0.0
  0
SPLINE
  5
C8
330
1F
100
AcDbEntity
  8
0
  6
Continuous
 62
     7
370
    15
100
AcDbSpline
210
0.0
220
0.0
230
1.0
 70
     8
 71
     3
 72
     8
 73
     4
 74
     0
 42
0.00000001
 43
0.00000001
 40
0.0
 40
0.0
 40
0.0
 40
0.0
 40
1.0
 40
1.0
 40
1.0
 40
1.0
 10
282.9912413053157
 20
138.3023753259343
 30
0.0
 10
282.9400257633367
 20
138.2511597839552
 30
0.0
 10
282.886173284315
 20
138.2028546797642
 30
0.0
 10
282.8296706780253
 20
138.1574591062854
 30
0.0
  0
SPLINE
  5
C9
330
1F
100
AcDbEntity
  8
0
  6
Continuous
 62
     7
370
    15
100
AcDbSpline
210
0.0
220
0.0
230
1.0
 70
     8
 71
     3
 72
     8
 73
     4
 74
     0
 42
0.00000001
 43
0.00000001
 40
0.0
 40
0.0
 40
0.0
 40
0.0
 40
1.0
 40
1.0
 40
1.0
 40
1.0
 10
256.4912413053157
 20
138.3023753259343
 30
0.0
 10
256.4400257633367
 20
138.2511597839552
 30
0.0
 10
256.3861732843151
 20
138.2028546797642
 30
0.0
 10
256.3296706780253
 20
138.1574591062855
 30
0.0
  0
SPLINE
  5
CA
330
1F
100
AcDbEntity
  8
0
  6
Continuous
 62
     7
370
    15
100
AcDbSpline
210
0.0
220
0.0
230
1.0
 70
     8
 71
     3
 72
     8
 73
     4
 74
     0
 42
0.00000001
 43
0.00000001
 40
0.0
 40
0.0
 40
0.0
 40
0.0
 40
1.0
 40
1.0
 40
1.0
 40
1.0
 10
282.8296706780252
 20
142.533056357632
 30
0.0
 10
282.886173284315
 20
142.4876607841532
 30
0.0
 10
282.9400257633367
 20
142.4393556799622
 30
0.0
 10
282.9912413053157
 20
142.3881401379832
 30
0.0
  0
SPLINE
  5
CB
330
1F
100
AcDbEntity
  8
0
  6
Continuous
 62
     7
370
    15
100
AcDbSpline
210
0.0
220
0.0
230
1.0
 70
     8
 71
     3
 72
     8
 73
     4
 74
     0
 42
0.00000001
 43
0.00000001
 40
0.0
 40
0.0
 40
0.0
 40
0.0
 40
1.0
 40
1.0
 40
1.0
 40
1.0
 10
296.4885767446551
 20
138.1574591062855
 30
0.0
 10
296.4320741383653
 20
138.2028546797642
 30
0.0
 10
296.3782216593436
 20
138.2511597839552
 30
0.0
 10
296.3270061173646
 20
138.3023753259343
 30
0.0
  0
ARC
  5
CC
330
1F
100
AcDbEntity
  8
0
  6
Continuous
 62
     7
370
    15
100
AcDbCircle
 10
222.6026575753
 20
139.4622805548
 30
0.0
 40
2.000000000000016
100
AcDbArc
 50
216.3303822255
 51
220.7350234764
  0
SPLINE
  5
CD
330
1F
100
AcDbEntity
  8
0
  6
Continuous
 62
     7
370
    15
100
AcDbSpline
210
0.0
220
0.0
230
1.0
 70
     8
 71
     3
 72
    10
 73
     6
 74
     0
 42
0.00000001
 43
0.00000001
 40
0.0
 40
0.0
 40
0.0
 40
0.0
 40
0.5
 40
0.5
 40
1.0
 40
1.0
 40
1.0
 40
1.0
 10
220.6762706345313
 20
139.2015137966967
 30
0.0
 10
220.6802683008225
 20
139.0436441238449
 30
0.0
 10
220.7068796191315
 20
138.8858155602102
 30
0.0
 10
220.808759767015
 20
138.5762997497322
 30
0.0
 10
220.8838854143496
 20
138.4236400251436
 30
0.0
 10
220.9914290909026
 20
138.2773996447734
 30
0.0
  0
ARC
  5
CE
330
1F
100
AcDbEntity
  8
0
  6
Continuous
 62
     7
370
    15
100
AcDbCircle
 10
305.7255898474
 20
141.2282349091
 30
0.0
 40
2.00000000000006
100
AcDbArc
 50
36.3303822255
 51
40.7350234764
  0
SPLINE
  5
CF
330
1F
100
AcDbEntity
  8
0
  6
Continuous
 62
     7
370
    15
100
AcDbSpline
210
0.0
220
0.0
230
1.0
 70
     8
 71
     3
 72
    10
 73
     6
 74
     0
 42
0.00000001
 43
0.00000001
 40
0.0
 40
0.0
 40
0.0
 40
0.0
 40
0.5
 40
0.5
 40
1.0
 40
1.0
 40
1.0
 40
1.0
 10
307.651976788149
 20
141.4890016672207
 30
0.0
 10
307.6479759855038
 20
141.6469951961299
 30
0.0
 10
307.6216415018709
 20
141.8036177056635
 30
0.0
 10
307.5197030577152
 20
142.1138108074018
 30
0.0
 10
307.4444664304111
 20
142.266733443212
 30
0.0
 10
307.336818331778
 20
142.4131158191437
 30
0.0
  0
ARC
  5
D0
330
1F
100
AcDbEntity
  8
0
  6
Continuous
 62
     7
370
    15
100
AcDbCircle
 10
305.7255898474
 20
139.4622805548
 30
0.0
 40
2.000000000000097
100
AcDbArc
 50
319.2649765236
 51
323.6696177745
  0
ARC
  5
D1
330
1F
100
AcDbEntity
  8
0
  6
Continuous
 62
     7
370
    15
100
AcDbCircle
 10
222.6026575753
 20
141.2282349091
 30
0.0
 40
1.999999999999995
100
AcDbArc
 50
139.2649765236
 51
143.6696177745
  0
LINE
  5
D2
330
1F
100
AcDbEntity
  8
0
  6
Continuous
 62
     7
370
    15
100
AcDbLine
 10
220.6641238455
 20
139.5260158129
 30
0.0
 11
220.6641238455
 21
141.164499651
 31
0.0
  0
LINE
  5
D3
330
1F
100
AcDbEntity
  8
0
  6
Continuous
 62
     7
370
    15
100
AcDbLine
 10
307.66412693
 20
139.5260158129
 30
0.0
 11
307.66412693
 21
141.164499651
 31
0.0
  0
LINE
  5
D4
330
1F
100
AcDbEntity
  8
0
  6
Continuous
 62
     7
370
    15
100
AcDbLine
 10
307.6516993616
 20
139.1828106966
 30
0.0
 11
307.651975033
 21
139.2015137494
 31
0.0
  0
LINE
  5
D5
330
1F
100
AcDbEntity
  8
0
  6
Continuous
 62
     7
370
    15
100
AcDbLine
 10
220.6762706201
 20
141.4890017145
 30
0.0
 11
220.676544429
 21
141.5077047673
 31
0.0
  0
LINE
  5
D6
330
1F
100
AcDbEntity
  8
0
  6
Continuous
 62
     7
370
    15
100
AcDbLine
 10
307.651975033
 20
141.4890017145
 30
0.0
 11
307.6516993616
 21
141.5077047673
 31
0.0
  0
LINE
  5
D7
330
1F
100
AcDbEntity
  8
0
  6
Continuous
 62
     7
370
    15
100
AcDbLine
 10
220.6762706201
 20
139.2015137494
 30
0.0
 11
220.676544429
 21
139.1828106966
 31
0.0
  0
LINE
  5
D8
330
1F
100
AcDbEntity
  8
0
  6
Continuous
 62
     7
370
    15
100
AcDbLine
 10
319.6049116824
 20
138.8452577189
 30
0.0
 11
319.2851253126
 21
138.8452577189
 31
0.0
  0
SPLINE
  5
D9
330
1F
100
AcDbEntity
  8
0
  6
Continuous
 62
     7
370
    15
100
AcDbSpline
210
0.0
220
0.0
230
1.0
 70
     8
 71
     3
 72
    23
 73
    19
 74
     0
 42
0.00000001
 43
0.00000001
 40
0.0
 40
0.0
 40
0.0
 40
0.0
 40
0.088978558641927
 40
0.1722383697636097
 40
0.250506052204487
 40
0.3238773027062999
 40
0.3920551892730441
 40
0.4545689590852338
 40
0.5120213181989921
 40
0.5650555453314391
 40
0.6151833812860007
 40
0.6641389337033108
 40
0.7129996240614105
 40
0.762174686489108
 40
0.8136198080034924
 40
0.8699721747550846
 40
0.9320216957010077
 40
0.9999999999999999
 40
0.9999999999999999
 40
0.9999999999999999
 40
0.9999999999999999
 10
319.992244560454
 20
139.3484980976518
 30
0.0
 10
319.9919041696535
 20
139.3270136323798
 30
0.0
 10
319.9912452653347
 20
139.2854255314917
 30
0.0
 10
319.9856272124296
 20
139.225140607735
 30
0.0
 10
319.9761144495816
 20
139.1691797896253
 30
0.0
 10
319.9630447931546
 20
139.1176852251931
 30
0.0
 10
319.9470527207912
 20
139.071027818652
 30
0.0
 10
319.9289012417223
 20
139.0293477314853
 30
0.0
 10
319.9091050095571
 20
138.9924783286111
 30
0.0
 10
319.8865100691812
 20
138.9608402120339
 30
0.0
 10
319.8618076381198
 20
138.9335593881623
 30
0.0
 10
319.834873584743
 20
138.90998609457
 30
0.0
 10
319.8055837228217
 20
138.8897865666862
 30
0.0
 10
319.7733603353651
 20
138.8733293472432
 30
0.0
 10
319.7376444192427
 20
138.8603283450098
 30
0.0
 10
319.6974685141013
 20
138.8516806459574
 30
0.0
 10
319.6527306562512
 20
138.8462451647922
 30
0.0
 10
319.6213288757086
 20
138.8455967316139
 30
0.0
 10
319.6049120834624
 20
138.8452577319587
 30
0.0
  0
SPLINE
  5
DA
330
1F
100
AcDbEntity
  8
0
  6
Continuous
 62
     7
370
    15
100
AcDbSpline
210
0.0
220
0.0
230
1.0
 70
     8
 71
     3
 72
    31
 73
    27
 74
     0
 42
0.00000001
 43
0.00000001
 40
0.0
 40
0.0
 40
0.0
 40
0.0
 40
0.0378402585484447
 40
0.0732297100366889
 40
0.1064858053460985
 40
0.1373509611958298
 40
0.1659562698006423
 40
0.1923495874038091
 40
0.2168189177083972
 40
0.2393844415109645
 40
0.2833625139563707
 40
0.3291787450015387
 40
0.3772763509751558
 40
0.4287201719350513
 40
0.4833627210019815
 40
0.541223581424106
 40
0.6028357808331488
 40
0.6692102173711753
 40
0.7043107617117585
 40
0.7410370896782176
 40
0.7794495055466438
 40
0.8198742860371944
 40
0.8620570775613904
 40
0.9060559573599759
 40
0.9519420556196512
 40
1.0
 40
1.0
 40
1.0
 40
1.0
 10
319.5959479841564
 20
139.8725852059171
 30
0.0
 10
319.6054692402685
 20
139.8725090320106
 30
0.0
 10
319.6238950875278
 20
139.8723616177672
 30
0.0
 10
319.6506684182655
 20
139.8711211758481
 30
0.0
 10
319.6756174026444
 20
139.8689864506134
 30
0.0
 10
319.6988176011158
 20
139.8664469275837
 30
0.0
 10
319.7201121202889
 20
139.8626892857388
 30
0.0
 10
319.7395576737274
 20
139.8580247995666
 30
0.0
 10
319.7573671949953
 20
139.85302938114
 30
0.0
 10
319.778653586353
 20
139.8444959590196
 30
0.0
 10
319.8037092258165
 20
139.831240190451
 30
0.0
 10
319.8322612930947
 20
139.8113530194618
 30
0.0
 10
319.859229868887
 20
139.7865214494005
 30
0.0
 10
319.8851223701595
 20
139.7575518337495
 30
0.0
 10
319.9091368889698
 20
139.7239008902571
 30
0.0
 10
319.9304305352117
 20
139.6855053818823
 30
0.0
 10
319.9486201162504
 20
139.6423623054067
 30
0.0
 10
319.9617146190648
 20
139.6034208245448
 30
0.0
 10
319.970424878119
 20
139.5697438989147
 30
0.0
 10
319.9762455538668
 20
139.542616628883
 30
0.0
 10
319.981237323571
 20
139.5139646278659
 30
0.0
 10
319.9854102876988
 20
139.4837956097813
 30
0.0
 10
319.9885406767507
 20
139.4520837252296
 30
0.0
 10
319.9904494437689
 20
139.4189062449603
 30
0.0
 10
319.992098455978
 20
139.3842315631159
 30
0.0
 10
319.9921951140982
 20
139.3605914276947
 30
0.0
 10
319.992244560454
 20
139.3484980976518
 30
0.0
  0
LINE
  5
DB
330
1F
100
AcDbEntity
  8
0
  6
Continuous
 62
     7
370
    15
100
AcDbLine
 10
319.2851253126
 20
139.8725852155
 30
0.0
 11
319.5959486339
 21
139.8725852155
 31
0.0
  0
LINE
  5
DC
330
1F
100
AcDbEntity
  8
0
  6
Continuous
 62
     7
370
    15
100
AcDbLine
 10
319.2851253126
 20
138.8452577189
 30
0.0
 11
319.2851253126
 21
139.8725852155
 31
0.0
  0
LINE
  5
DD
330
1F
100
AcDbEntity
  8
0
  6
Continuous
 62
     7
370
    15
100
AcDbLine
 10
318.1110330198
 20
139.6991402976
 30
0.0
 11
318.1110330198
 21
138.8452577189
 31
0.0
  0
LINE
  5
DE
330
1F
100
AcDbEntity
  8
0
  6
Continuous
 62
     7
370
    15
100
AcDbLine
 10
318.3511875842
 20
139.6991402976
 30
0.0
 11
318.1110330198
 21
139.6991402976
 31
0.0
  0
LINE
  5
DF
330
1F
100
AcDbEntity
  8
0
  6
Continuous
 62
     7
370
    15
100
AcDbLine
 10
318.3511875842
 20
139.8725852155
 30
0.0
 11
318.3511875842
 21
139.6991402976
 31
0.0
  0
LINE
  5
E0
330
1F
100
AcDbEntity
  8
0
  6
Continuous
 62
     7
370
    15
100
AcDbLine
 10
317.7107803795
 20
139.8725852155
 30
0.0
 11
318.3511875842
 21
139.8725852155
 31
0.0
  0
LINE
  5
E1
330
1F
100
AcDbEntity
  8
0
  6
Continuous
 62
     7
370
    15
100
AcDbLine
 10
317.7107803795
 20
139.6991402976
 30
0.0
 11
317.7107803795
 21
139.8725852155
 31
0.0
  0
LINE
  5
E2
330
1F
100
AcDbEntity
  8
0
  6
Continuous
 62
     7
370
    15
100
AcDbLine
 10
317.9509349439
 20
139.6991402976
 30
0.0
 11
317.7107803795
 21
139.6991402976
 31
0.0
  0
LINE
  5
E3
330
1F
100
AcDbEntity
  8
0
  6
Continuous
 62
     7
370
    15
100
AcDbLine
 10
317.9509349439
 20
138.8452577189
 30
0.0
 11
317.9509349439
 21
139.6991402976
 31
0.0
  0
LINE
  5
E4
330
1F
100
AcDbEntity
  8
0
  6
Continuous
 62
     7
370
    15
100
AcDbLine
 10
318.1110330198
 20
138.8452577189
 30
0.0
 11
317.9509349439
 21
138.8452577189
 31
0.0
  0
LINE
  5
E5
330
1F
100
AcDbEntity
  8
0
  6
Continuous
 62
     7
370
    15
100
AcDbLine
 10
316.7768426511
 20
139.0187025786
 30
0.0
 11
316.7768426511
 21
138.8452577189
 31
0.0
  0
LINE
  5
E6
330
1F
100
AcDbEntity
  8
0
  6
Continuous
 62
     7
370
    15
100
AcDbLine
 10
316.2965335224
 20
139.0187025786
 30
0.0
 11
316.7768426511
 21
139.0187025786
 31
0.0
  0
LINE
  5
E7
330
1F
100
AcDbEntity
  8
0
  6
Continuous
 62
     7
370
    15
100
AcDbLine
 10
316.2965335224
 20
139.2988828261
 30
0.0
 11
316.2965335224
 21
139.0187025786
 31
0.0
  0
LINE
  5
E8
330
1F
100
AcDbEntity
  8
0
  6
Continuous
 62
     7
370
    15
100
AcDbLine
 10
316.7368181322
 20
139.2988828261
 30
0.0
 11
316.2965335224
 21
139.2988828261
 31
0.0
  0
LINE
  5
E9
330
1F
100
AcDbEntity
  8
0
  6
Continuous
 62
     7
370
    15
100
AcDbLine
 10
316.7368181322
 20
139.4589858496
 30
0.0
 11
316.7368181322
 21
139.2988828261
 31
0.0
  0
LINE
  5
EA
330
1F
100
AcDbEntity
  8
0
  6
Continuous
 62
     7
370
    15
100
AcDbLine
 10
316.2965335224
 20
139.4589858496
 30
0.0
 11
316.7368181322
 21
139.4589858496
 31
0.0
  0
LINE
  5
EB
330
1F
100
AcDbEntity
  8
0
  6
Continuous
 62
     7
370
    15
100
AcDbLine
 10
316.2965335224
 20
139.6991402976
 30
0.0
 11
316.2965335224
 21
139.4589858496
 31
0.0
  0
LINE
  5
EC
330
1F
100
AcDbEntity
  8
0
  6
Continuous
 62
     7
370
    15
100
AcDbLine
 10
316.7634986613
 20
139.6991402976
 30
0.0
 11
316.2965335224
 21
139.6991402976
 31
0.0
  0
LINE
  5
ED
330
1F
100
AcDbEntity
  8
0
  6
Continuous
 62
     7
370
    15
100
AcDbLine
 10
316.7634986613
 20
139.8725852155
 30
0.0
 11
316.7634986613
 21
139.6991402976
 31
0.0
  0
LINE
  5
EE
330
1F
100
AcDbEntity
  8
0
  6
Continuous
 62
     7
370
    15
100
AcDbLine
 10
316.1364279959
 20
139.8725852155
 30
0.0
 11
316.7634986613
 21
139.8725852155
 31
0.0
  0
LINE
  5
EF
330
1F
100
AcDbEntity
  8
0
  6
Continuous
 62
     7
370
    15
100
AcDbLine
 10
316.1364279959
 20
138.8452577189
 30
0.0
 11
316.1364279959
 21
139.8725852155
 31
0.0
  0
LINE
  5
F0
330
1F
100
AcDbEntity
  8
0
  6
Continuous
 62
     7
370
    15
100
AcDbLine
 10
316.7768426511
 20
138.8452577189
 30
0.0
 11
316.1364279959
 21
138.8452577189
 31
0.0
  0
LINE
  5
F1
330
1F
100
AcDbEntity
  8
0
  6
Continuous
 62
     7
370
    15
100
AcDbLine
 10
314.8132868383
 20
139.8725852155
 30
0.0
 11
314.9640120838
 21
139.8725852155
 31
0.0
  0
LINE
  5
F2
330
1F
100
AcDbEntity
  8
0
  6
Continuous
 62
     7
370
    15
100
AcDbLine
 10
314.4686900351
 20
138.8452577189
 30
0.0
 11
314.8132868383
 21
139.8725852155
 31
0.0
  0
LINE
  5
F3
330
1F
100
AcDbEntity
  8
0
  6
Continuous
 62
     7
370
    15
100
AcDbLine
 10
314.6362982962
 20
138.8452577189
 30
0.0
 11
314.4686900351
 21
138.8452577189
 31
0.0
  0
LINE
  5
F4
330
1F
100
AcDbEntity
  8
0
  6
Continuous
 62
     7
370
    15
100
AcDbLine
 10
314.709261832
 20
139.0720702725
 30
0.0
 11
314.6362982962
 21
138.8452577189
 31
0.0
  0
LINE
  5
F5
330
1F
100
AcDbEntity
  8
0
  6
Continuous
 62
     7
370
    15
100
AcDbLine
 10
315.0688715551
 20
139.0720702725
 30
0.0
 11
314.709261832
 21
139.0720702725
 31
0.0
  0
LINE
  5
F6
330
1F
100
AcDbEntity
  8
0
  6
Continuous
 62
     7
370
    15
100
AcDbLine
 10
315.1420437071
 20
138.8452577189
 30
0.0
 11
315.0688715551
 21
139.0720702725
 31
0.0
  0
LINE
  5
F7
330
1F
100
AcDbEntity
  8
0
  6
Continuous
 62
     7
370
    15
100
AcDbLine
 10
315.3092347357
 20
138.8452577189
 30
0.0
 11
315.1420437071
 21
138.8452577189
 31
0.0
  0
LINE
  5
F8
330
1F
100
AcDbEntity
  8
0
  6
Continuous
 62
     7
370
    15
100
AcDbLine
 10
314.9640120838
 20
139.8725852155
 30
0.0
 11
315.3092347357
 21
138.8452577189
 31
0.0
  0
LINE
  5
F9
330
1F
100
AcDbEntity
  8
0
  6
Continuous
 62
     7
370
    15
100
AcDbLine
 10
313.321285722
 20
139.0187025786
 30
0.0
 11
313.321285722
 21
138.8452577189
 31
0.0
  0
LINE
  5
FA
330
1F
100
AcDbEntity
  8
0
  6
Continuous
 62
     7
370
    15
100
AcDbLine
 10
312.8810011122
 20
139.0187025786
 30
0.0
 11
313.321285722
 21
139.0187025786
 31
0.0
  0
LINE
  5
FB
330
1F
100
AcDbEntity
  8
0
  6
Continuous
 62
     7
370
    15
100
AcDbLine
 10
312.8810011122
 20
139.8725852155
 30
0.0
 11
312.8810011122
 21
139.0187025786
 31
0.0
  0
LINE
  5
FC
330
1F
100
AcDbEntity
  8
0
  6
Continuous
 62
     7
370
    15
100
AcDbLine
 10
312.7209030363
 20
139.8725852155
 30
0.0
 11
312.8810011122
 21
139.8725852155
 31
0.0
  0
LINE
  5
FD
330
1F
100
AcDbEntity
  8
0
  6
Continuous
 62
     7
370
    15
100
AcDbLine
 10
312.7209030363
 20
138.8452577189
 30
0.0
 11
312.7209030363
 21
139.8725852155
 31
0.0
  0
LINE
  5
FE
330
1F
100
AcDbEntity
  8
0
  6
Continuous
 62
     7
370
    15
100
AcDbLine
 10
313.321285722
 20
138.8452577189
 30
0.0
 11
312.7209030363
 21
138.8452577189
 31
0.0
  0
LINE
  5
FF
330
1F
100
AcDbEntity
  8
0
  6
Continuous
 62
     7
370
    15
100
AcDbLine
 10
312.053807852
 20
139.6991402976
 30
0.0
 11
312.053807852
 21
138.8452577189
 31
0.0
  0
LINE
  5
100
330
1F
100
AcDbEntity
  8
0
  6
Continuous
 62
     7
370
    15
100
AcDbLine
 10
312.2939624164
 20
139.6991402976
 30
0.0
 11
312.053807852
 21
139.6991402976
 31
0.0
  0
LINE
  5
101
330
1F
100
AcDbEntity
  8
0
  6
Continuous
 62
     7
370
    15
100
AcDbLine
 10
312.2939624164
 20
139.8725852155
 30
0.0
 11
312.2939624164
 21
139.6991402976
 31
0.0
  0
LINE
  5
102
330
1F
100
AcDbEntity
  8
0
  6
Continuous
 62
     7
370
    15
100
AcDbLine
 10
311.6535477612
 20
139.8725852155
 30
0.0
 11
312.2939624164
 21
139.8725852155
 31
0.0
  0
LINE
  5
103
330
1F
100
AcDbEntity
  8
0
  6
Continuous
 62
     7
370
    15
100
AcDbLine
 10
311.6535477612
 20
139.6991402976
 30
0.0
 11
311.6535477612
 21
139.8725852155
 31
0.0
  0
LINE
  5
104
330
1F
100
AcDbEntity
  8
0
  6
Continuous
 62
     7
370
    15
100
AcDbLine
 10
311.8937023256
 20
139.6991402976
 30
0.0
 11
311.6535477612
 21
139.6991402976
 31
0.0
  0
LINE
  5
105
330
1F
100
AcDbEntity
  8
0
  6
Continuous
 62
     7
370
    15
100
AcDbLine
 10
311.8937023256
 20
138.8452577189
 30
0.0
 11
311.8937023256
 21
139.6991402976
 31
0.0
  0
LINE
  5
106
330
1F
100
AcDbEntity
  8
0
  6
Continuous
 62
     7
370
    15
100
AcDbLine
 10
312.053807852
 20
138.8452577189
 30
0.0
 11
311.8937023256
 21
138.8452577189
 31
0.0
  0
LINE
  5
107
330
1F
100
AcDbEntity
  8
0
  6
Continuous
 62
     7
370
    15
100
AcDbLine
 10
310.6929295037
 20
139.8725852155
 30
0.0
 11
310.6929295037
 21
138.8452577189
 31
0.0
  0
LINE
  5
108
330
1F
100
AcDbEntity
  8
0
  6
Continuous
 62
     7
370
    15
100
AcDbLine
 10
310.5328239772
 20
139.8725852155
 30
0.0
 11
310.6929295037
 21
139.8725852155
 31
0.0
  0
LINE
  5
109
330
1F
100
AcDbEntity
  8
0
  6
Continuous
 62
     7
370
    15
100
AcDbLine
 10
310.5328239772
 20
138.8452577189
 30
0.0
 11
310.5328239772
 21
139.8725852155
 31
0.0
  0
LINE
  5
10A
330
1F
100
AcDbEntity
  8
0
  6
Continuous
 62
     7
370
    15
100
AcDbLine
 10
310.6929295037
 20
138.8452577189
 30
0.0
 11
310.5328239772
 21
138.8452577189
 31
0.0
  0
SPLINE
  5
10B
330
1F
100
AcDbEntity
  8
0
  6
Continuous
 62
     7
370
    15
100
AcDbSpline
210
0.0
220
0.0
230
1.0
 70
     8
 71
     3
 72
    14
 73
    10
 74
     0
 42
0.00000001
 43
0.00000001
 40
1.0
 40
1.0
 40
1.0
 40
1.0
 40
2.0
 40
2.0
 40
2.0
 40
3.0
 40
3.0
 40
3.0
 40
4.0
 40
4.0
 40
4.0
 40
4.0
 10
320.8552121744567
 20
140.7241580668214
 30
0.0
 10
320.861205652713
 20
140.7185416695484
 30
0.0
 10
320.8724531418039
 20
140.716277524587
 30
0.0
 10
320.8812651285791
 20
140.7162545347345
 30
0.0
 10
321.0539118108406
 20
140.7158051660705
 30
0.0
 10
321.2265584931021
 20
140.7159103979729
 30
0.0
 10
321.3992061233988
 20
140.7159625399065
 30
0.0
 10
321.405301989452
 20
140.7159644359768
 30
0.0
 10
321.4113988035403
 20
140.7165863470391
 30
0.0
 10
321.4213939381901
 20
140.717132415289
 30
0.0
  0
LINE
  5
10C
330
1F
100
AcDbEntity
  8
0
  6
Continuous
 62
     7
370
    15
100
AcDbLine
 10
321.4213930342
 20
140.7171324204
 30
0.0
 11
320.8596714113
 21
141.2445288984
 31
0.0
  0
LINE
  5
10D
330
1F
100
AcDbEntity
  8
0
  6
Continuous
 62
     7
370
    15
100
AcDbLine
 10
320.8596714113
 20
141.2445288984
 30
0.0
 11
320.5571182344
 21
141.0059266741
 31
0.0
  0
SPLINE
  5
10E
330
1F
100
AcDbEntity
  8
0
  6
Continuous
 62
     7
370
    15
100
AcDbSpline
210
0.0
220
0.0
230
1.0
 70
     8
 71
     3
 72
     8
 73
     4
 74
     0
 42
0.00000001
 43
0.00000001
 40
0.0
 40
0.0
 40
0.0
 40
0.0
 40
1.0
 40
1.0
 40
1.0
 40
1.0
 10
320.5571148441055
 20
141.0059266766543
 30
0.0
 10
320.6569713870883
 20
140.9112942813987
 30
0.0
 10
320.7557623385558
 20
140.8173745715715
 30
0.0
 10
320.8552121744567
 20
140.7241580668214
 30
0.0
  0
LINE
  5
10F
330
1F
100
AcDbEntity
  8
0
  6
Continuous
 62
     7
370
    15
100
AcDbLine
 10
318.783991811
 20
140.6970854982
 30
0.0
 11
318.3141283963
 21
140.6970854982
 31
0.0
  0
SPLINE
  5
110
330
1F
100
AcDbEntity
  8
0
  6
Continuous
 62
     7
370
    15
100
AcDbSpline
210
0.0
220
0.0
230
1.0
 70
     8
 71
     3
 72
    11
 73
     7
 74
     0
 42
0.00000001
 43
0.00000001
 40
16.0
 40
16.0
 40
16.0
 40
16.0
 40
17.0
 40
17.0
 40
17.0
 40
18.0
 40
18.0
 40
18.0
 40
18.0
 10
319.1870552021472
 20
140.7298294501335
 30
0.0
 10
319.1120210636542
 20
140.7149912778891
 30
0.0
 10
319.0346869918728
 20
140.7109595213794
 30
0.0
 10
318.9581625421146
 20
140.7047477580284
 30
0.0
 10
318.900279307629
 20
140.7000490587864
 30
0.0
 10
318.8420604686982
 20
140.6994880589828
 30
0.0
 10
318.783990471287
 20
140.6970855008887
 30
0.0
  0
SPLINE
  5
111
330
1F
100
AcDbEntity
  8
0
  6
Continuous
 62
     7
370
    15
100
AcDbSpline
210
0.0
220
0.0
230
1.0
 70
     8
 71
     3
 72
     8
 73
     4
 74
     0
 42
0.00000001
 43
0.00000001
 40
15.0
 40
15.0
 40
15.0
 40
15.0
 40
16.0
 40
16.0
 40
16.0
 40
16.0
 10
319.3957490251458
 20
140.8970725690145
 30
0.0
 10
319.3593615397877
 20
140.8022526998068
 30
0.0
 10
319.2832428490762
 20
140.7488510645125
 30
0.0
 10
319.1870552021472
 20
140.7298294501335
 30
0.0
  0
SPLINE
  5
112
330
1F
100
AcDbEntity
  8
0
  6
Continuous
 62
     7
370
    15
100
AcDbSpline
210
0.0
220
0.0
230
1.0
 70
     8
 71
     3
 72
     8
 73
     4
 74
     0
 42
0.00000001
 43
0.00000001
 40
14.0
 40
14.0
 40
14.0
 40
14.0
 40
15.0
 40
15.0
 40
15.0
 40
15.0
 10
319.42755560463
 20
141.0342252890525
 30
0.0
 10
319.4230628660256
 20
140.9878173091041
 30
0.0
 10
319.4124372879971
 20
140.9405568085417
 30
0.0
 10
319.3957490251458
 20
140.8970725690145
 30
0.0
  0
SPLINE
  5
113
330
1F
100
AcDbEntity
  8
0
  6
Continuous
 62
     7
370
    15
100
AcDbSpline
210
0.0
220
0.0
230
1.0
 70
     8
 71
     3
 72
     8
 73
     4
 74
     0
 42
0.00000001
 43
0.00000001
 40
13.0
 40
13.0
 40
13.0
 40
13.0
 40
14.0
 40
14.0
 40
14.0
 40
14.0
 10
319.4438618093134
 20
141.3108723759638
 30
0.0
 10
319.4417211459312
 20
141.2185538975152
 30
0.0
 10
319.4364529145692
 20
141.1261204698039
 30
0.0
 10
319.42755560463
 20
141.0342252890525
 30
0.0
  0
SPLINE
  5
114
330
1F
100
AcDbEntity
  8
0
  6
Continuous
 62
     7
370
    15
100
AcDbSpline
210
0.0
220
0.0
230
1.0
 70
     8
 71
     3
 72
     8
 73
     4
 74
     0
 42
0.00000001
 43
0.00000001
 40
12.0
 40
12.0
 40
12.0
 40
12.0
 40
13.0
 40
13.0
 40
13.0
 40
13.0
 10
319.4245579174667
 20
141.7270088525639
 30
0.0
 10
319.4447349496921
 20
141.5889637944353
 30
0.0
 10
319.4470841808087
 20
141.4498998355228
 30
0.0
 10
319.4438618093134
 20
141.3108723759638
 30
0.0
  0
SPLINE
  5
115
330
1F
100
AcDbEntity
  8
0
  6
Continuous
 62
     7
370
    15
100
AcDbSpline
210
0.0
220
0.0
230
1.0
 70
     8
 71
     3
 72
     8
 73
     4
 74
     0
 42
0.00000001
 43
0.00000001
 40
11.0
 40
11.0
 40
11.0
 40
11.0
 40
12.0
 40
12.0
 40
12.0
 40
12.0
 10
319.3678985963676
 20
141.8902448638492
 30
0.0
 10
319.4025018795621
 20
141.8412901059586
 30
0.0
 10
319.4160910154883
 20
141.7849298899512
 30
0.0
 10
319.4245579174667
 20
141.7270088525639
 30
0.0
  0
SPLINE
  5
116
330
1F
100
AcDbEntity
  8
0
  6
Continuous
 62
     7
370
    15
100
AcDbSpline
210
0.0
220
0.0
230
1.0
 70
     8
 71
     3
 72
    20
 73
    16
 74
     0
 42
0.00000001
 43
0.00000001
 40
6.0
 40
6.0
 40
6.0
 40
6.0
 40
7.0
 40
7.0
 40
7.0
 40
8.0
 40
8.0
 40
8.0
 40
9.0
 40
9.0
 40
9.0
 40
10.0
 40
10.0
 40
10.0
 40
11.0
 40
11.0
 40
11.0
 40
11.0
 10
317.7486384332997
 20
141.9121200640479
 30
0.0
 10
317.8018971522943
 20
141.9722971880977
 30
0.0
 10
317.8715568794877
 20
142.0035380276026
 30
0.0
 10
317.9488577700388
 20
142.0123935054906
 30
0.0
 10
318.0450387807218
 20
142.0234118070825
 30
0.0
 10
318.1420151929006
 20
142.0306179408078
 30
0.0
 10
318.2387906216264
 20
142.0326387962472
 30
0.0
 10
318.4185371391713
 20
142.0363920674299
 30
0.0
 10
318.5984012130756
 20
142.0370357833008
 30
0.0
 10
318.7781856520267
 20
142.0354262566147
 30
0.0
 10
318.9028579632533
 20
142.0343101822272
 30
0.0
 10
319.0278952680151
 20
142.0326207835793
 30
0.0
 10
319.1514962995154
 20
142.0130886522687
 30
0.0
 10
319.2384756809742
 20
141.999343801568
 30
0.0
 10
319.3150048709081
 20
141.965070790121
 30
0.0
 10
319.3678985963676
 20
141.8902448638492
 30
0.0
  0
SPLINE
  5
117
330
1F
100
AcDbEntity
  8
0
  6
Continuous
 62
     7
370
    15
100
AcDbSpline
210
0.0
220
0.0
230
1.0
 70
     8
 71
     3
 72
    14
 73
    10
 74
     0
 42
0.00000001
 43
0.00000001
 40
3.0
 40
3.0
 40
3.0
 40
3.0
 40
4.0
 40
4.0
 40
4.0
 40
5.0
 40
5.0
 40
5.0
 40
6.0
 40
6.0
 40
6.0
 40
6.0
 10
317.6772447498059
 20
140.9908320609002
 30
0.0
 10
317.654744083413
 20
141.1358527617067
 30
0.0
 10
317.6516259957849
 20
141.2819819526194
 30
0.0
 10
317.6550607271552
 20
141.4280939603949
 30
0.0
 10
317.6573663486546
 20
141.5261693823284
 30
0.0
 10
317.6649259809886
 20
141.6242777484836
 30
0.0
 10
317.6742470626425
 20
141.7219788150348
 30
0.0
 10
317.6808776205237
 20
141.791477731765
 30
0.0
 10
317.7006536338781
 20
141.8579013409535
 30
0.0
 10
317.7486384332997
 20
141.9121200640479
 30
0.0
  0
SPLINE
  5
118
330
1F
100
AcDbEntity
  8
0
  6
Continuous
 62
     7
370
    15
100
AcDbSpline
210
0.0
220
0.0
230
1.0
 70
     8
 71
     3
 72
     8
 73
     4
 74
     0
 42
0.00000001
 43
0.00000001
 40
2.0
 40
2.0
 40
2.0
 40
2.0
 40
3.0
 40
3.0
 40
3.0
 40
3.0
 10
317.9337185966324
 20
140.7247567510224
 30
0.0
 10
317.7828236329904
 20
140.7500000831216
 30
0.0
 10
317.7006744906515
 20
140.8398287842417
 30
0.0
 10
317.6772447498059
 20
140.9908320609002
 30
0.0
  0
SPLINE
  5
119
330
1F
100
AcDbEntity
  8
0
  6
Continuous
 62
     7
370
    15
100
AcDbSpline
210
0.0
220
0.0
230
1.0
 70
     8
 71
     3
 72
    11
 73
     7
 74
     0
 42
0.00000001
 43
0.00000001
 40
0.0
 40
0.0
 40
0.0
 40
0.0
 40
1.0
 40
1.0
 40
1.0
 40
2.0
 40
2.0
 40
2.0
 40
2.0
 10
318.3141290794045
 20
140.6970855008887
 30
0.0
 10
318.2728412003249
 20
140.698617288692
 30
0.0
 10
318.2314575696946
 20
140.6988704140787
 30
0.0
 10
318.1902853509042
 20
140.7019472621776
 30
0.0
 10
318.1046360627693
 20
140.7083479215334
 30
0.0
 10
318.018157243873
 20
140.710630790189
 30
0.0
 10
317.9337185966324
 20
140.7247567510224
 30
0.0
  0
LINE
  5
11A
330
1F
100
AcDbEntity
  8
0
  6
Continuous
 62
     7
370
    15
100
AcDbLine
 10
317.5680719588
 20
141.0488959186
 30
0.0
 11
316.6432164881
 21
141.0488959186
 31
0.0
  0
LINE
  5
11B
330
1F
100
AcDbEntity
  8
0
  6
Continuous
 62
     7
370
    15
100
AcDbLine
 10
316.6432164881
 20
141.0488959186
 30
0.0
 11
316.6432164881
 21
142.0163093385
 31
0.0
  0
LINE
  5
11C
330
1F
100
AcDbEntity
  8
0
  6
Continuous
 62
     7
370
    15
100
AcDbLine
 10
316.6432164881
 20
142.0163093385
 30
0.0
 11
316.2263788555
 21
142.0163093385
 31
0.0
  0
LINE
  5
11D
330
1F
100
AcDbEntity
  8
0
  6
Continuous
 62
     7
370
    15
100
AcDbLine
 10
316.2263788555
 20
142.0163093385
 30
0.0
 11
316.2263788555
 21
140.7166657405
 31
0.0
  0
LINE
  5
11E
330
1F
100
AcDbEntity
  8
0
  6
Continuous
 62
     7
370
    15
100
AcDbLine
 10
316.2263788555
 20
140.7166657405
 30
0.0
 11
317.5680719588
 21
140.7166657405
 31
0.0
  0
LINE
  5
11F
330
1F
100
AcDbEntity
  8
0
  6
Continuous
 62
     7
370
    15
100
AcDbLine
 10
317.5680719588
 20
140.7166657405
 30
0.0
 11
317.5680719588
 21
141.0488959186
 31
0.0
  0
SPLINE
  5
120
330
1F
100
AcDbEntity
  8
0
  6
Continuous
 62
     7
370
    15
100
AcDbSpline
210
0.0
220
0.0
230
1.0
 70
     8
 71
     3
 72
     8
 73
     4
 74
     0
 42
0.00000001
 43
0.00000001
 40
4.0
 40
4.0
 40
4.0
 40
4.0
 40
5.0
 40
5.0
 40
5.0
 40
5.0
 10
316.0718159456467
 20
141.231334833471
 30
0.0
 10
316.080628880457
 20
141.255480814877
 30
0.0
 10
316.0873248527639
 20
141.2806938098512
 30
0.0
 10
316.0921086381611
 20
141.3059632129172
 30
0.0
  0
SPLINE
  5
121
330
1F
100
AcDbEntity
  8
0
  6
Continuous
 62
     7
370
    15
100
AcDbSpline
210
0.0
220
0.0
230
1.0
 70
     8
 71
     3
 72
     8
 73
     4
 74
     0
 42
0.00000001
 43
0.00000001
 40
5.0
 40
5.0
 40
5.0
 40
5.0
 40
6.0
 40
6.0
 40
6.0
 40
6.0
 10
316.0921086381611
 20
141.3059632129172
 30
0.0
 10
316.1103649511605
 20
141.4023915422715
 30
0.0
 10
316.114150929556
 20
141.4999467299131
 30
0.0
 10
316.1079038518955
 20
141.5975839225957
 30
0.0
  0
SPLINE
  5
122
330
1F
100
AcDbEntity
  8
0
  6
Continuous
 62
     7
370
    15
100
AcDbSpline
210
0.0
220
0.0
230
1.0
 70
     8
 71
     3
 72
     8
 73
     4
 74
     0
 42
0.00000001
 43
0.00000001
 40
6.0
 40
6.0
 40
6.0
 40
6.0
 40
7.0
 40
7.0
 40
7.0
 40
7.0
 10
316.1079038518955
 20
141.5975839225957
 30
0.0
 10
316.1042425401229
 20
141.654811946284
 30
0.0
 10
316.0978646336109
 20
141.7121862043952
 30
0.0
 10
316.0877666371466
 20
141.7686100572624
 30
0.0
  0
SPLINE
  5
123
330
1F
100
AcDbEntity
  8
0
  6
Continuous
 62
     7
370
    15
100
AcDbSpline
210
0.0
220
0.0
230
1.0
 70
     8
 71
     3
 72
    20
 73
    16
 74
     0
 42
0.00000001
 43
0.00000001
 40
7.0
 40
7.0
 40
7.0
 40
7.0
 40
8.0
 40
8.0
 40
8.0
 40
9.0
 40
9.0
 40
9.0
 40
10.0
 40
10.0
 40
10.0
 40
11.0
 40
11.0
 40
11.0
 40
12.0
 40
12.0
 40
12.0
 40
12.0
 10
316.0877666371466
 20
141.7686100572624
 30
0.0
 10
316.071094490893
 20
141.8617651767362
 30
0.0
 10
316.022099085995
 20
141.9319752383378
 30
0.0
 10
315.931356004967
 20
141.9681181306256
 30
0.0
 10
315.9151905835042
 20
141.9745567113877
 30
0.0
 10
315.8987663484438
 20
141.9804747023447
 30
0.0
 10
315.8821496622468
 20
141.9856288139748
 30
0.0
 10
315.7887805238366
 20
142.0145895104251
 30
0.0
 10
315.692073353642
 20
142.0156565239932
 30
0.0
 10
315.5959141477676
 20
142.0160363305775
 30
0.0
 10
315.254205778187
 20
142.0173859771265
 30
0.0
 10
314.9124893503076
 20
142.016760392428
 30
0.0
 10
314.5707762405513
 20
142.0168825704587
 30
0.0
 10
314.5638584280178
 20
142.0168850590509
 30
0.0
 10
314.5569406154844
 20
142.0168829259718
 30
0.0
 10
314.5492074927167
 20
142.0168829259718
 30
0.0
  0
LINE
  5
124
330
1F
100
AcDbEntity
  8
0
  6
Continuous
 62
     7
370
    15
100
AcDbLine
 10
314.5492084596
 20
142.0168829168
 30
0.0
 11
314.5492084596
 21
140.7183425868
 31
0.0
  0
LINE
  5
125
330
1F
100
AcDbEntity
  8
0
  6
Continuous
 62
     7
370
    15
100
AcDbLine
 10
314.5492084596
 20
140.7183425868
 30
0.0
 11
314.9433665249
 21
140.7183425868
 31
0.0
  0
LINE
  5
126
330
1F
100
AcDbEntity
  8
0
  6
Continuous
 62
     7
370
    15
100
AcDbLine
 10
314.9433665249
 20
140.7183425868
 30
0.0
 11
314.9433665249
 21
141.0357606033
 31
0.0
  0
SPLINE
  5
127
330
1F
100
AcDbEntity
  8
0
  6
Continuous
 62
     7
370
    15
100
AcDbSpline
210
0.0
220
0.0
230
1.0
 70
     8
 71
     3
 72
    17
 73
    13
 74
     0
 42
0.00000001
 43
0.00000001
 40
0.0
 40
0.0
 40
0.0
 40
0.0
 40
1.0
 40
1.0
 40
1.0
 40
2.0
 40
2.0
 40
2.0
 40
3.0
 40
3.0
 40
3.0
 40
4.0
 40
4.0
 40
4.0
 40
4.0
 10
314.9433687514093
 20
141.0357606319876
 30
0.0
 10
314.9535098834731
 20
141.0357606319876
 30
0.0
 10
314.961706595432
 20
141.0357300578539
 30
0.0
 10
314.969903307391
 20
141.0357648981459
 30
0.0
 10
315.1873038852623
 20
141.0366885213966
 30
0.0
 10
315.4047063592041
 20
141.0373784539814
 30
0.0
 10
315.6221050410052
 20
141.0386639896529
 30
0.0
 10
315.7127831816251
 20
141.0392001035337
 30
0.0
 10
315.8029470131729
 20
141.0447235933614
 30
0.0
 10
315.8907635096744
 20
141.070547122976
 30
0.0
 10
315.9765550030826
 20
141.0957752865127
 30
0.0
 10
316.0404919160569
 20
141.1455049446389
 30
0.0
 10
316.0718159456467
 20
141.231334833471
 30
0.0
  0
LINE
  5
128
330
1F
100
AcDbEntity
  8
0
  6
Continuous
 62
     7
370
    15
100
AcDbLine
 10
313.9511503551
 20
142.0151700982
 30
0.0
 11
313.9511503551
 21
140.718672275
 31
0.0
  0
LINE
  5
129
330
1F
100
AcDbEntity
  8
0
  6
Continuous
 62
     7
370
    15
100
AcDbLine
 10
313.9511503551
 20
140.718672275
 30
0.0
 11
314.3634207818
 21
140.718672275
 31
0.0
  0
LINE
  5
12A
330
1F
100
AcDbEntity
  8
0
  6
Continuous
 62
     7
370
    15
100
AcDbLine
 10
314.3634207818
 20
140.718672275
 30
0.0
 11
314.3634207818
 21
142.0151700982
 31
0.0
  0
LINE
  5
12B
330
1F
100
AcDbEntity
  8
0
  6
Continuous
 62
     7
370
    15
100
AcDbLine
 10
314.3634207818
 20
142.0151700982
 30
0.0
 11
313.9511503551
 21
142.0151700982
 31
0.0
  0
LINE
  5
12C
330
1F
100
AcDbEntity
  8
0
  6
Continuous
 62
     7
370
    15
100
AcDbLine
 10
312.1920086715
 20
140.7181475329
 30
0.0
 11
312.586554167
 21
140.7181475329
 31
0.0
  0
LINE
  5
12D
330
1F
100
AcDbEntity
  8
0
  6
Continuous
 62
     7
370
    15
100
AcDbLine
 10
312.586554167
 20
140.7181475329
 30
0.0
 11
312.586554167
 21
141.0474086547
 31
0.0
  0
SPLINE
  5
12E
330
1F
100
AcDbEntity
  8
0
  6
Continuous
 62
     7
370
    15
100
AcDbSpline
210
0.0
220
0.0
230
1.0
 70
     8
 71
     3
 72
    14
 73
    10
 74
     0
 42
0.00000001
 43
0.00000001
 40
3.0
 40
3.0
 40
3.0
 40
3.0
 40
4.0
 40
4.0
 40
4.0
 40
5.0
 40
5.0
 40
5.0
 40
6.0
 40
6.0
 40
6.0
 40
6.0
 10
312.5865543015961
 20
141.047408665932
 30
0.0
 10
312.5949171567161
 20
141.047408665932
 30
0.0
 10
312.6006530064188
 20
141.047408665932
 30
0.0
 10
312.6063886191126
 20
141.047408665932
 30
0.0
 10
312.8056852806361
 20
141.0474072438793
 30
0.0
 10
313.0049824161771
 20
141.0475961398841
 30
0.0
 10
313.2042778926565
 20
141.047201994268
 30
0.0
 10
313.2346230759478
 20
141.0471420310444
 30
0.0
 10
313.2650322516121
 20
141.0452101724052
 30
0.0
 10
313.295290215669
 20
141.0426883988902
 30
0.0
  0
SPLINE
  5
12F
330
1F
100
AcDbEntity
  8
0
  6
Continuous
 62
     7
370
    15
100
AcDbSpline
210
0.0
220
0.0
230
1.0
 70
     8
 71
     3
 72
     8
 73
     4
 74
     0
 42
0.00000001
 43
0.00000001
 40
6.0
 40
6.0
 40
6.0
 40
6.0
 40
7.0
 40
7.0
 40
7.0
 40
7.0
 10
313.295290215669
 20
141.0426883988902
 30
0.0
 10
313.3515143886315
 20
141.0380020241053
 30
0.0
 10
313.3829853636705
 20
141.0122185489759
 30
0.0
 10
313.3944883482359
 20
140.9563176560016
 30
0.0
  0
SPLINE
  5
130
330
1F
100
AcDbEntity
  8
0
  6
Continuous
 62
     7
370
    15
100
AcDbSpline
210
0.0
220
0.0
230
1.0
 70
     8
 71
     3
 72
     8
 73
     4
 74
     0
 42
0.00000001
 43
0.00000001
 40
7.0
 40
7.0
 40
7.0
 40
7.0
 40
8.0
 40
8.0
 40
8.0
 40
8.0
 10
313.3944883482359
 20
140.9563176560016
 30
0.0
 10
313.4017313368279
 20
140.9211199547643
 30
0.0
 10
313.4042910317491
 20
140.8846812755078
 30
0.0
 10
313.4058557637741
 20
140.8486644718957
 30
0.0
  0
SPLINE
  5
131
330
1F
100
AcDbEntity
  8
0
  6
Continuous
 62
     7
370
    15
100
AcDbSpline
210
0.0
220
0.0
230
1.0
 70
     8
 71
     3
 72
     8
 73
     4
 74
     0
 42
0.00000001
 43
0.00000001
 40
8.0
 40
8.0
 40
8.0
 40
8.0
 40
9.0
 40
9.0
 40
9.0
 40
9.0
 10
313.4058557637741
 20
140.8486644718957
 30
0.0
 10
313.4077276591897
 20
140.8055715338791
 30
0.0
 10
313.4062980221743
 20
140.762335442554
 30
0.0
 10
313.4062980221743
 20
140.718278115775
 30
0.0
  0
LINE
  5
132
330
1F
100
AcDbEntity
  8
0
  6
Continuous
 62
     7
370
    15
100
AcDbLine
 10
313.4062968466
 20
140.7182781218
 30
0.0
 11
313.7955822322
 21
140.7182781218
 31
0.0
  0
SPLINE
  5
133
330
1F
100
AcDbEntity
  8
0
  6
Continuous
 62
     7
370
    15
100
AcDbSpline
210
0.0
220
0.0
230
1.0
 70
     8
 71
     3
 72
    17
 73
    13
 74
     0
 42
0.00000001
 43
0.00000001
 40
10.0
 40
10.0
 40
10.0
 40
10.0
 40
11.0
 40
11.0
 40
11.0
 40
12.0
 40
12.0
 40
12.0
 40
13.0
 40
13.0
 40
13.0
 40
14.0
 40
14.0
 40
14.0
 40
14.0
 10
313.7955844840947
 20
140.718278115775
 30
0.0
 10
313.7962566410203
 20
140.7213426394168
 30
0.0
 10
313.7970425621646
 20
140.7231794575316
 30
0.0
 10
313.7970036927232
 20
140.7249982629784
 30
0.0
 10
313.7947724919835
 20
140.8297002136437
 30
0.0
 10
313.7949094830635
 20
140.9345280159758
 30
0.0
 10
313.7894459564595
 20
141.0390628754448
 30
0.0
 10
313.784684923906
 20
141.1301569664894
 30
0.0
 10
313.7261812004108
 20
141.1933397174971
 30
0.0
 10
313.636846425607
 20
141.2128628424736
 30
0.0
 10
313.6206866923552
 20
141.2163942734298
 30
0.0
 10
313.6042126854491
 20
141.2184875350543
 30
0.0
 10
313.587883727922
 20
141.2212448953055
 30
0.0
  0
SPLINE
  5
134
330
1F
100
AcDbEntity
  8
0
  6
Continuous
 62
     7
370
    15
100
AcDbSpline
210
0.0
220
0.0
230
1.0
 70
     8
 71
     3
 72
    11
 73
     7
 74
     0
 42
0.00000001
 43
0.00000001
 40
14.0
 40
14.0
 40
14.0
 40
14.0
 40
15.0
 40
15.0
 40
15.0
 40
16.0
 40
16.0
 40
16.0
 40
16.0
 10
313.587883727922
 20
141.2212448953055
 30
0.0
 10
313.5959884804707
 20
141.2258848163679
 30
0.0
 10
313.6040098059257
 20
141.2278545964132
 30
0.0
 10
313.6120605204706
 20
141.2296935476071
 30
0.0
 10
313.7299392117693
 20
141.2566194050994
 30
0.0
 10
313.7858268322514
 20
141.3148728473134
 30
0.0
 10
313.8017836859798
 20
141.4344699708367
 30
0.0
  0
SPLINE
  5
135
330
1F
100
AcDbEntity
  8
0
  6
Continuous
 62
     7
370
    15
100
AcDbSpline
210
0.0
220
0.0
230
1.0
 70
     8
 71
     3
 72
     8
 73
     4
 74
     0
 42
0.00000001
 43
0.00000001
 40
16.0
 40
16.0
 40
16.0
 40
16.0
 40
17.0
 40
17.0
 40
17.0
 40
17.0
 10
313.8017836859798
 20
141.4344699708367
 30
0.0
 10
313.816633234646
 20
141.5457656245164
 30
0.0
 10
313.8146489970645
 20
141.6575864896725
 30
0.0
 10
313.8004957802204
 20
141.7689450691857
 30
0.0
  0
SPLINE
  5
136
330
1F
100
AcDbEntity
  8
0
  6
Continuous
 62
     7
370
    15
100
AcDbSpline
210
0.0
220
0.0
230
1.0
 70
     8
 71
     3
 72
    17
 73
    13
 74
     0
 42
0.00000001
 43
0.00000001
 40
17.0
 40
17.0
 40
17.0
 40
17.0
 40
18.0
 40
18.0
 40
18.0
 40
19.0
 40
19.0
 40
19.0
 40
20.0
 40
20.0
 40
20.0
 40
21.0
 40
21.0
 40
21.0
 40
21.0
 10
313.8004957802204
 20
141.7689450691857
 30
0.0
 10
313.7840563765975
 20
141.8982876385997
 30
0.0
 10
313.7131760541406
 20
141.9812383446629
 30
0.0
 10
313.5719960807599
 20
142.0060746141669
 30
0.0
 10
313.508887750512
 20
142.0171765798614
 30
0.0
 10
313.4431841740245
 20
142.0159551550673
 30
0.0
 10
313.3786476288141
 20
142.0161107513373
 30
0.0
 10
312.9904115898467
 20
142.0170474100714
 30
0.0
 10
312.6021724697651
 20
142.016760392428
 30
0.0
 10
312.2139345347273
 20
142.0168826889631
 30
0.0
 10
312.2069972874733
 20
142.0168848220422
 30
0.0
 10
312.2000598032103
 20
142.0168829259718
 30
0.0
 10
312.1920109847358
 20
142.0168829259718
 30
0.0
  0
LINE
  5
137
330
1F
100
AcDbEntity
  8
0
  6
Continuous
 62
     7
370
    15
100
AcDbLine
 10
312.1920086715
 20
142.0168829168
 30
0.0
 11
312.1920086715
 21
140.7181475329
 31
0.0
  0
LINE
  5
138
330
1F
100
AcDbEntity
  8
0
  6
Continuous
 62
     7
370
    15
100
AcDbLine
 10
311.1028604481
 20
140.7187424152
 30
0.0
 11
311.5181409094
 21
140.7187424152
 31
0.0
  0
SPLINE
  5
139
330
1F
100
AcDbEntity
  8
0
  6
Continuous
 62
     7
370
    15
100
AcDbSpline
210
0.0
220
0.0
230
1.0
 70
     8
 71
     3
 72
    20
 73
    16
 74
     0
 42
0.00000001
 43
0.00000001
 40
6.0
 40
6.0
 40
6.0
 40
6.0
 40
7.0
 40
7.0
 40
7.0
 40
8.0
 40
8.0
 40
8.0
 40
9.0
 40
9.0
 40
9.0
 40
10.0
 40
10.0
 40
10.0
 40
11.0
 40
11.0
 40
11.0
 40
11.0
 10
311.5181393005341
 20
140.7187424159927
 30
0.0
 10
311.5181393005341
 20
140.7288904213114
 30
0.0
 10
311.5181390635253
 20
140.7372791103894
 30
0.0
 10
311.5181390635253
 20
140.7456675624586
 30
0.0
 10
311.5181393005341
 20
141.0510804060912
 30
0.0
 10
311.5181366934374
 20
141.3564933682283
 30
0.0
 10
311.5181454627626
 20
141.6619063303653
 30
0.0
 10
311.518146173789
 20
141.6869694172804
 30
0.0
 10
311.5181833841689
 20
141.687022151736
 30
0.0
 10
311.5437464411244
 20
141.6870246403282
 30
0.0
 10
311.7197470347591
 20
141.6870413494478
 30
0.0
 10
311.8957478654027
 20
141.6870182410909
 30
0.0
 10
312.0717484590373
 20
141.687086736631
 30
0.0
 10
312.0798001216173
 20
141.6870898177452
 30
0.0
 10
312.0878513101798
 20
141.6878477718524
 30
0.0
 10
312.0950217740823
 20
141.6882098027777
 30
0.0
  0
LINE
  5
13A
330
1F
100
AcDbEntity
  8
0
  6
Continuous
 62
     7
370
    15
100
AcDbLine
 10
312.0950244639
 20
141.6882097506
 30
0.0
 11
312.0950244639
 21
142.0160576486
 31
0.0
  0
LINE
  5
13B
330
1F
100
AcDbEntity
  8
0
  6
Continuous
 62
     7
370
    15
100
AcDbLine
 10
312.0950244639
 20
142.0160576486
 30
0.0
 11
310.5238236759
 21
142.0160576486
 31
0.0
  0
LINE
  5
13C
330
1F
100
AcDbEntity
  8
0
  6
Continuous
 62
     7
370
    15
100
AcDbLine
 10
310.5238236759
 20
142.0160576486
 30
0.0
 11
310.5238236759
 21
141.6870340722
 31
0.0
  0
SPLINE
  5
13D
330
1F
100
AcDbEntity
  8
0
  6
Continuous
 62
     7
370
    15
100
AcDbSpline
210
0.0
220
0.0
230
1.0
 70
     8
 71
     3
 72
    20
 73
    16
 74
     0
 42
0.00000001
 43
0.00000001
 40
0.0
 40
0.0
 40
0.0
 40
0.0
 40
1.0
 40
1.0
 40
1.0
 40
2.0
 40
2.0
 40
2.0
 40
3.0
 40
3.0
 40
3.0
 40
4.0
 40
4.0
 40
4.0
 40
5.0
 40
5.0
 40
5.0
 40
5.0
 10
310.523825097354
 20
141.6870341206798
 30
0.0
 10
310.5341488446898
 20
141.6870341206798
 30
0.0
 10
310.5424865768781
 20
141.6870341206798
 30
0.0
 10
310.5508244275709
 20
141.6870341206798
 30
0.0
 10
310.7242368852296
 20
141.6870340021754
 30
0.0
 10
310.8976493428884
 20
141.6870355427325
 30
0.0
 10
311.0710618005473
 20
141.6870325801227
 30
0.0
 10
311.1028456271878
 20
141.6870319876007
 30
0.0
 10
311.1028579516448
 20
141.6870233367799
 30
0.0
 10
311.1028581886536
 20
141.6560926232754
 30
0.0
 10
311.1028615067765
 20
141.3526220666687
 30
0.0
 10
311.1028605587415
 20
141.0491516285663
 30
0.0
 10
311.1028607957502
 20
140.7456810719596
 30
0.0
 10
311.1028607957502
 20
140.7368351929276
 30
0.0
 10
311.1028605587415
 20
140.7279895509044
 30
0.0
 10
311.1028605587415
 20
140.7187424159927
 30
0.0
  0
CIRCLE
  5
13E
330
1F
100
AcDbEntity
  8
0
  6
Continuous
 62
     7
370
    15
100
AcDbCircle
 10
326.1641237113
 20
140.345257732
 30
0.0
 40
4.099999999999994
  0
LINE
  5
13F
330
1F
100
AcDbEntity
  8
0
  6
Continuous
 62
     7
370
    15
100
AcDbLine
 10
308.8664196703
 20
141.015503988
 30
0.0
 11
308.8664196703
 21
141.1436479789
 31
0.0
  0
SPLINE
  5
140
330
1F
100
AcDbEntity
  8
0
  6
Continuous
 62
     7
370
    15
100
AcDbSpline
210
0.0
220
0.0
230
1.0
 70
     8
 71
     3
 72
    17
 73
    13
 74
     0
 42
0.00000001
 43
0.00000001
 40
40.0
 40
40.0
 40
40.0
 40
40.0
 40
41.0
 40
41.0
 40
41.0
 40
42.0
 40
42.0
 40
42.0
 40
43.0
 40
43.0
 40
43.0
 40
44.0
 40
44.0
 40
44.0
 40
44.0
 10
309.4342133337519
 20
140.7005621828146
 30
0.0
 10
309.3690752602349
 20
140.7036390309135
 30
0.0
 10
309.3038484565527
 20
140.7053146830517
 30
0.0
 10
309.2387992020794
 20
140.7096640313387
 30
0.0
 10
309.1710784734149
 20
140.7141918472438
 30
0.0
 10
309.1040808141263
 20
140.7240208387326
 30
0.0
 10
309.0397927578181
 20
140.7474975073185
 30
0.0
 10
308.9490072299972
 20
140.7806505337331
 30
0.0
 10
308.8928401261588
 20
140.8427532356892
 30
0.0
 10
308.8781430130282
 20
140.9398130749618
 30
0.0
 10
308.8743206093444
 20
140.965056407061
 30
0.0
 10
308.8703323532056
 20
140.9902743792197
 30
0.0
 10
308.8664202613688
 20
141.0155039648091
 30
0.0
  0
SPLINE
  5
141
330
1F
100
AcDbEntity
  8
0
  6
Continuous
 62
     7
370
    15
100
AcDbSpline
210
0.0
220
0.0
230
1.0
 70
     8
 71
     3
 72
     8
 73
     4
 74
     0
 42
0.00000001
 43
0.00000001
 40
39.0
 40
39.0
 40
39.0
 40
39.0
 40
40.0
 40
40.0
 40
40.0
 40
40.0
 10
309.4488930656207
 20
140.6970855008887
 30
0.0
 10
309.4440017967377
 20
140.6982866614314
 30
0.0
 10
309.439150286079
 20
140.7003287291574
 30
0.0
 10
309.4342133337519
 20
140.7005621828146
 30
0.0
  0
LINE
  5
142
330
1F
100
AcDbEntity
  8
0
  6
Continuous
 62
     7
370
    15
100
AcDbLine
 10
309.8799221489
 20
140.6970854982
 30
0.0
 11
309.4488911602
 21
140.6970854982
 31
0.0
  0
SPLINE
  5
143
330
1F
100
AcDbEntity
  8
0
  6
Continuous
 62
     7
370
    15
100
AcDbSpline
210
0.0
220
0.0
230
1.0
 70
     8
 71
     3
 72
    11
 73
     7
 74
     0
 42
0.00000001
 43
0.00000001
 40
36.0
 40
36.0
 40
36.0
 40
36.0
 40
37.0
 40
37.0
 40
37.0
 40
38.0
 40
38.0
 40
38.0
 40
38.0
 10
310.2169481319273
 20
140.7248771514872
 30
0.0
 10
310.1272007248218
 20
140.7065606382555
 30
0.0
 10
310.036110188909
 20
140.7038073071536
 30
0.0
 10
309.9449750953439
 20
140.7013149227285
 30
0.0
 10
309.9232687639075
 20
140.700721215712
 30
0.0
 10
309.9016058050794
 20
140.6985378907477
 30
0.0
 10
309.879922937513
 20
140.6970855008887
 30
0.0
  0
SPLINE
  5
144
330
1F
100
AcDbEntity
  8
0
  6
Continuous
 62
     7
370
    15
100
AcDbSpline
210
0.0
220
0.0
230
1.0
 70
     8
 71
     3
 72
    11
 73
     7
 74
     0
 42
0.00000001
 43
0.00000001
 40
34.0
 40
34.0
 40
34.0
 40
34.0
 40
35.0
 40
35.0
 40
35.0
 40
36.0
 40
36.0
 40
36.0
 40
36.0
 10
310.4577725254247
 20
141.1801129680092
 30
0.0
 10
310.4643522449206
 20
141.1058028913666
 30
0.0
 10
310.4597456235931
 20
141.0315873812309
 30
0.0
 10
310.4463383919124
 20
140.9580921408049
 30
0.0
 10
310.4213863436149
 20
140.8213110505481
 30
0.0
 10
310.3539836511191
 20
140.7528444255984
 30
0.0
 10
310.2169481319273
 20
140.7248771514872
 30
0.0
  0
SPLINE
  5
145
330
1F
100
AcDbEntity
  8
0
  6
Continuous
 62
     7
370
    15
100
AcDbSpline
210
0.0
220
0.0
230
1.0
 70
     8
 71
     3
 72
    11
 73
     7
 74
     0
 42
0.00000001
 43
0.00000001
 40
32.0
 40
32.0
 40
32.0
 40
32.0
 40
33.0
 40
33.0
 40
33.0
 40
34.0
 40
34.0
 40
34.0
 40
34.0
 10
310.2227297243263
 20
141.4948180967279
 30
0.0
 10
310.3252812942488
 20
141.479615997488
 30
0.0
 10
310.4061011727945
 20
141.4254733542149
 30
0.0
 10
310.4364002578764
 20
141.3194272082029
 30
0.0
 10
310.4492137825406
 20
141.2745799311301
 30
0.0
 10
310.4536315078632
 20
141.2268790682377
 30
0.0
 10
310.4577725254247
 20
141.1801129680092
 30
0.0
  0
SPLINE
  5
146
330
1F
100
AcDbEntity
  8
0
  6
Continuous
 62
     7
370
    15
100
AcDbSpline
210
0.0
220
0.0
230
1.0
 70
     8
 71
     3
 72
    14
 73
    10
 74
     0
 42
0.00000001
 43
0.00000001
 40
29.0
 40
29.0
 40
29.0
 40
29.0
 40
30.0
 40
30.0
 40
30.0
 40
31.0
 40
31.0
 40
31.0
 40
32.0
 40
32.0
 40
32.0
 40
32.0
 10
309.3238318229713
 20
141.5510686961703
 30
0.0
 10
309.3769838880108
 20
141.5443291142462
 30
0.0
 10
309.4304079798878
 20
141.5378023662147
 30
0.0
 10
309.4838837989331
 20
141.5359313003299
 30
0.0
 10
309.6163429746702
 20
141.5312969489741
 30
0.0
 10
309.7490412330233
 20
141.5321949752756
 30
0.0
 10
309.8813671505688
 20
141.5254494681318
 30
0.0
 10
309.9954285783118
 20
141.51963516852
 30
0.0
 10
310.1098802410258
 20
141.5115465325689
 30
0.0
 10
310.2227297243263
 20
141.4948180967279
 30
0.0
  0
SPLINE
  5
147
330
1F
100
AcDbEntity
  8
0
  6
Continuous
 62
     7
370
    15
100
AcDbSpline
210
0.0
220
0.0
230
1.0
 70
     8
 71
     3
 72
    14
 73
    10
 74
     0
 42
0.00000001
 43
0.00000001
 40
26.0
 40
26.0
 40
26.0
 40
26.0
 40
27.0
 40
27.0
 40
27.0
 40
28.0
 40
28.0
 40
28.0
 40
29.0
 40
29.0
 40
29.0
 40
29.0
 10
309.3258715502356
 20
141.7264561480679
 30
0.0
 10
309.2931194538137
 20
141.7219638834811
 30
0.0
 10
309.2711556715802
 20
141.7020096395174
 30
0.0
 10
309.2660435105058
 20
141.6690421909846
 30
0.0
 10
309.2628461730638
 20
141.6484229003589
 30
0.0
 10
309.2625738499653
 20
141.6264248111032
 30
0.0
 10
309.2660654041927
 20
141.605909330327
 30
0.0
 10
309.2713618692267
 20
141.574788891287
 30
0.0
 10
309.2927778352706
 20
141.555006123182
 30
0.0
 10
309.3238318229713
 20
141.5510686961703
 30
0.0
  0
SPLINE
  5
148
330
1F
100
AcDbEntity
  8
0
  6
Continuous
 62
     7
370
    15
100
AcDbSpline
210
0.0
220
0.0
230
1.0
 70
     8
 71
     3
 72
    20
 73
    16
 74
     0
 42
0.00000001
 43
0.00000001
 40
21.0
 40
21.0
 40
21.0
 40
21.0
 40
22.0
 40
22.0
 40
22.0
 40
23.0
 40
23.0
 40
23.0
 40
24.0
 40
24.0
 40
24.0
 40
25.0
 40
25.0
 40
25.0
 40
26.0
 40
26.0
 40
26.0
 40
26.0
 10
310.030110192911
 20
141.6112652549409
 30
0.0
 10
310.0283220801023
 20
141.6287313806377
 30
0.0
 10
310.0267752422409
 20
141.6452926067781
 30
0.0
 10
310.0249045318694
 20
141.6618172150606
 30
0.0
 10
310.0206747545164
 20
141.6991818876558
 30
0.0
 10
309.9982302592066
 20
141.7208032514414
 30
0.0
 10
309.9626265619137
 20
141.7259295145387
 30
0.0
 10
309.9218281059835
 20
141.7318036588698
 30
0.0
 10
309.8804994613923
 20
141.7365449011894
 30
0.0
 10
309.8393514767504
 20
141.7369712800008
 30
0.0
 10
309.7061041875376
 20
141.73835221171
 30
0.0
 10
309.5728269759653
 20
141.738307772562
 30
0.0
 10
309.4395775536734
 20
141.7370639504373
 30
0.0
 10
309.4016300764661
 20
141.7367098593066
 30
0.0
 10
309.363570316345
 20
141.731627087322
 30
0.0
 10
309.3258715502356
 20
141.7264561480679
 30
0.0
  0
LINE
  5
149
330
1F
100
AcDbEntity
  8
0
  6
Continuous
 62
     7
370
    15
100
AcDbLine
 10
310.4096807811
 20
141.6112652764
 30
0.0
 11
310.0301109526
 21
141.6112652764
 31
0.0
  0
SPLINE
  5
14A
330
1F
100
AcDbEntity
  8
0
  6
Continuous
 62
     7
370
    15
100
AcDbSpline
210
0.0
220
0.0
230
1.0
 70
     8
 71
     3
 72
    38
 73
    34
 74
     0
 42
0.00000001
 43
0.00000001
 40
9.0
 40
9.0
 40
9.0
 40
9.0
 40
10.0
 40
10.0
 40
10.0
 40
11.0
 40
11.0
 40
11.0
 40
12.0
 40
12.0
 40
12.0
 40
13.0
 40
13.0
 40
13.0
 40
14.0
 40
14.0
 40
14.0
 40
15.0
 40
15.0
 40
15.0
 40
16.0
 40
16.0
 40
16.0
 40
17.0
 40
17.0
 40
17.0
 40
18.0
 40
18.0
 40
18.0
 40
19.0
 40
19.0
 40
19.0
 40
20.0
 40
20.0
 40
20.0
 40
20.0
 10
309.2931114843932
 20
141.23720838528
 30
0.0
 10
309.2276749871849
 20
141.2390196064456
 30
0.0
 10
309.1628232795372
 20
141.2432004414837
 30
0.0
 10
309.0986748658449
 20
141.256916377112
 30
0.0
 10
308.9889971082242
 20
141.2803674487488
 30
0.0
 10
308.9193588821718
 20
141.3453962612139
 30
0.0
 10
308.8953819102518
 20
141.4553676282851
 30
0.0
 10
308.869802985743
 20
141.5726863863197
 30
0.0
 10
308.8713880894141
 20
141.6903646866872
 30
0.0
 10
308.9000040815778
 20
141.8070940038637
 30
0.0
 10
308.9299272299843
 20
141.9291553077662
 30
0.0
 10
309.0131695901755
 20
141.9948260585364
 30
0.0
 10
309.1331306406943
 20
142.0118549030175
 30
0.0
 10
309.2205321644324
 20
142.0242618391043
 30
0.0
 10
309.3092978515077
 20
142.0301503224671
 30
0.0
 10
309.3976179324337
 20
142.0323163457898
 30
0.0
 10
309.5547218745733
 20
142.0361692791682
 30
0.0
 10
309.7119667776902
 20
142.0368337333082
 30
0.0
 10
309.8691185363531
 20
142.0353087002553
 30
0.0
 10
309.980172441068
 20
142.0342309027873
 30
0.0
 10
310.0915532994074
 20
142.0308950040821
 30
0.0
 10
310.199900919265
 20
142.0012598991227
 30
0.0
 10
310.2142002520276
 20
141.9973487800866
 30
0.0
 10
310.2282671976725
 20
141.9925369091478
 30
0.0
 10
310.2423179082154
 20
141.9877763506119
 30
0.0
 10
310.3365793847163
 20
141.9558388237718
 30
0.0
 10
310.388602695398
 20
141.8877444211252
 30
0.0
 10
310.4016981420169
 20
141.7915969471859
 30
0.0
 10
310.4095131513211
 20
141.7342196079605
 30
0.0
 10
310.408746546393
 20
141.6756720378394
 30
0.0
 10
310.4117238508005
 20
141.6176445835057
 30
0.0
 10
310.4118130846095
 20
141.6159042279681
 30
0.0
 10
310.4106265001074
 20
141.6140983395003
 30
0.0
 10
310.409682257092
 20
141.6112652549409
 30
0.0
  0
SPLINE
  5
14B
330
1F
100
AcDbEntity
  8
0
  6
Continuous
 62
     7
370
    15
100
AcDbSpline
210
0.0
220
0.0
230
1.0
 70
     8
 71
     3
 72
     8
 73
     4
 74
     0
 42
0.00000001
 43
0.00000001
 40
8.0
 40
8.0
 40
8.0
 40
8.0
 40
9.0
 40
9.0
 40
9.0
 40
9.0
 10
309.6923325548439
 20
141.222557449979
 30
0.0
 10
309.5592732136008
 20
141.2278417979386
 30
0.0
 10
309.4262186717856
 20
141.2335233726286
 30
0.0
 10
309.2931114843932
 20
141.23720838528
 30
0.0
  0
SPLINE
  5
14C
330
1F
100
AcDbEntity
  8
0
  6
Continuous
 62
     7
370
    15
100
AcDbSpline
210
0.0
220
0.0
230
1.0
 70
     8
 71
     3
 72
    17
 73
    13
 74
     0
 42
0.00000001
 43
0.00000001
 40
4.0
 40
4.0
 40
4.0
 40
4.0
 40
5.0
 40
5.0
 40
5.0
 40
6.0
 40
6.0
 40
6.0
 40
7.0
 40
7.0
 40
7.0
 40
8.0
 40
8.0
 40
8.0
 40
8.0
 10
309.8625049246004
 20
140.9966966063753
 30
0.0
 10
309.9050676739559
 20
140.9966390132396
 30
0.0
 10
309.9480053712157
 20
140.9974182981378
 30
0.0
 10
309.9901173298546
 20
141.0028652341267
 30
0.0
 10
310.0602839003434
 20
141.0119407746753
 30
0.0
 10
310.0788474952377
 20
141.0427137588306
 30
0.0
 10
310.0762439536905
 20
141.1186096612804
 30
0.0
 10
310.0740166635958
 20
141.1835360859487
 30
0.0
 10
310.0446102721178
 20
141.2067695835171
 30
0.0
 10
309.9732444371567
 20
141.2102102401071
 30
0.0
 10
309.8796260840048
 20
141.2147235984761
 30
0.0
 10
309.7859858667921
 20
141.2188385450708
 30
0.0
 10
309.6923325548439
 20
141.222557449979
 30
0.0
  0
SPLINE
  5
14D
330
1F
100
AcDbEntity
  8
0
  6
Continuous
 62
     7
370
    15
100
AcDbSpline
210
0.0
220
0.0
230
1.0
 70
     8
 71
     3
 72
    14
 73
    10
 74
     0
 42
0.00000001
 43
0.00000001
 40
1.0
 40
1.0
 40
1.0
 40
1.0
 40
2.0
 40
2.0
 40
2.0
 40
3.0
 40
3.0
 40
3.0
 40
4.0
 40
4.0
 40
4.0
 40
4.0
 10
309.2486082255777
 20
141.1436479807771
 30
0.0
 10
309.2503649643479
 20
141.1274209370292
 30
0.0
 10
309.251588166708
 20
141.1133781662807
 30
0.0
 10
309.253446108231
 20
141.0994192966436
 30
0.0
 10
309.2633309449157
 20
141.0251556737237
 30
0.0
 10
309.2913650258793
 20
141.002681789324
 30
0.0
 10
309.3618726816416
 20
141.0005690929788
 30
0.0
 10
309.528641901449
 20
140.9955717626627
 30
0.0
 10
309.6956137045188
 20
140.9969217647249
 30
0.0
 10
309.8625049246004
 20
140.9966966063753
 30
0.0
  0
LINE
  5
14E
330
1F
100
AcDbEntity
  8
0
  6
Continuous
 62
     7
370
    15
100
AcDbLine
 10
308.8664196703
 20
141.1436479789
 30
0.0
 11
309.2486046526
 21
141.1436479789
 31
0.0
  0
SPLINE
  5
14F
330
1F
100
AcDbEntity
  8
0
  6
Continuous
 62
     7
370
    15
100
AcDbSpline
210
0.0
220
0.0
230
1.0
 70
     8
 71
     3
 72
    14
 73
    10
 74
     0
 42
0.00000001
 43
0.00000001
 40
2.0
 40
2.0
 40
2.0
 40
2.0
 40
3.0
 40
3.0
 40
3.0
 40
4.0
 40
4.0
 40
4.0
 40
5.0
 40
5.0
 40
5.0
 40
5.0
 10
320.044511287214
 20
142.0090579622985
 30
0.0
 10
320.038780414696
 20
142.014409265241
 30
0.0
 10
320.028687632425
 20
142.0175504612261
 30
0.0
 10
320.0206170091419
 20
142.0175733325742
 30
0.0
 10
319.8511320241257
 20
142.0180544604159
 30
0.0
 10
319.6816460910743
 20
142.017949347018
 30
0.0
 10
319.5121601580229
 20
142.0178808514779
 30
0.0
 10
319.5068663297118
 20
142.0178787183989
 30
0.0
 10
319.5015725014005
 20
142.0170429069044
 30
0.0
 10
319.4929368491644
 20
142.0163135123563
 30
0.0
  0
LINE
  5
150
330
1F
100
AcDbEntity
  8
0
  6
Continuous
 62
     7
370
    15
100
AcDbLine
 10
319.4929369066
 20
142.0163135294
 30
0.0
 11
320.2157475326
 21
141.3301850221
 31
0.0
  0
LINE
  5
151
330
1F
100
AcDbEntity
  8
0
  6
Continuous
 62
     7
370
    15
100
AcDbLine
 10
320.2157475326
 20
141.3301850221
 30
0.0
 11
320.5087863181
 21
141.572029122
 31
0.0
  0
SPLINE
  5
152
330
1F
100
AcDbEntity
  8
0
  6
Continuous
 62
     7
370
    15
100
AcDbSpline
210
0.0
220
0.0
230
1.0
 70
     8
 71
     3
 72
    11
 73
     7
 74
     0
 42
0.00000001
 43
0.00000001
 40
0.0
 40
0.0
 40
0.0
 40
0.0
 40
1.0
 40
1.0
 40
1.0
 40
2.0
 40
2.0
 40
2.0
 40
2.0
 10
320.5087887520277
 20
141.5720291609478
 30
0.0
 10
320.503820099775
 20
141.5776098883981
 30
0.0
 10
320.5014841411506
 20
141.5806790337112
 30
0.0
 10
320.4987111383192
 20
141.5832829307716
 30
0.0
 10
320.3474331684743
 20
141.7253386516278
 30
0.0
 10
320.1961959641409
 20
141.8674377450922
 30
0.0
 10
320.044511287214
 20
142.0090579622985
 30
0.0
  0
LINE
  5
153
330
1F
100
AcDbEntity
  8
0
  6
Continuous
 62
     7
370
    15
100
AcDbLine
 10
321.7973195288
 20
142.646427757
 30
0.0
 11
321.7973195288
 21
142.5687647675
 31
0.0
  0
SPLINE
  5
154
330
1F
100
AcDbEntity
  8
0
  6
Continuous
 62
     7
370
    15
100
AcDbSpline
210
0.0
220
0.0
230
1.0
 70
     8
 71
     3
 72
     8
 73
     4
 74
     0
 42
0.00000001
 43
0.00000001
 40
40.0
 40
40.0
 40
40.0
 40
40.0
 40
41.0
 40
41.0
 40
41.0
 40
41.0
 10
321.7930303555933
 20
142.6606065589425
 30
0.0
 10
321.7941442969016
 20
142.6558072494696
 30
0.0
 10
321.7958725649911
 20
142.6511505600354
 30
0.0
 10
321.7973164225336
 20
142.6464278044014
 30
0.0
  0
SPLINE
  5
155
330
1F
100
AcDbEntity
  8
0
  6
Continuous
 62
     7
370
    15
100
AcDbSpline
210
0.0
220
0.0
230
1.0
 70
     8
 71
     3
 72
     8
 73
     4
 74
     0
 42
0.00000001
 43
0.00000001
 40
39.0
 40
39.0
 40
39.0
 40
39.0
 40
40.0
 40
40.0
 40
40.0
 40
40.0
 10
321.7700395550249
 20
142.7583422287769
 30
0.0
 10
321.7808537920495
 20
142.7268469010849
 30
0.0
 10
321.7854688271889
 20
142.6932283301565
 30
0.0
 10
321.7930303555933
 20
142.6606065589425
 30
0.0
  0
SPLINE
  5
156
330
1F
100
AcDbEntity
  8
0
  6
Continuous
 62
     7
370
    15
100
AcDbSpline
210
0.0
220
0.0
230
1.0
 70
     8
 71
     3
 72
     8
 73
     4
 74
     0
 42
0.00000001
 43
0.00000001
 40
38.0
 40
38.0
 40
38.0
 40
38.0
 40
39.0
 40
39.0
 40
39.0
 40
39.0
 10
321.5902304671597
 20
142.991343762054
 30
0.0
 10
321.6711538000417
 20
142.9300151308028
 30
0.0
 10
321.7365350445762
 20
142.8559372931473
 30
0.0
 10
321.7700395550249
 20
142.7583422287769
 30
0.0
  0
SPLINE
  5
157
330
1F
100
AcDbEntity
  8
0
  6
Continuous
 62
     7
370
    15
100
AcDbSpline
210
0.0
220
0.0
230
1.0
 70
     8
 71
     3
 72
     8
 73
     4
 74
     0
 42
0.00000001
 43
0.00000001
 40
37.0
 40
37.0
 40
37.0
 40
37.0
 40
38.0
 40
38.0
 40
38.0
 40
38.0
 10
321.2291058635664
 20
143.1662094983548
 30
0.0
 10
321.3579334128818
 20
143.1255514256929
 30
0.0
 10
321.4815837422103
 20
143.073682496611
 30
0.0
 10
321.5902304671597
 20
142.991343762054
 30
0.0
  0
SPLINE
  5
158
330
1F
100
AcDbEntity
  8
0
  6
Continuous
 62
     7
370
    15
100
AcDbSpline
210
0.0
220
0.0
230
1.0
 70
     8
 71
     3
 72
    38
 73
    34
 74
     0
 42
0.00000001
 43
0.00000001
 40
26.0
 40
26.0
 40
26.0
 40
26.0
 40
27.0
 40
27.0
 40
27.0
 40
28.0
 40
28.0
 40
28.0
 40
29.0
 40
29.0
 40
29.0
 40
30.0
 40
30.0
 40
30.0
 40
31.0
 40
31.0
 40
31.0
 40
32.0
 40
32.0
 40
32.0
 40
33.0
 40
33.0
 40
33.0
 40
34.0
 40
34.0
 40
34.0
 40
35.0
 40
35.0
 40
35.0
 40
36.0
 40
36.0
 40
36.0
 40
37.0
 40
37.0
 40
37.0
 40
37.0
 10
314.1634505656824
 20
142.3040674236422
 30
0.0
 10
314.2045265589045
 20
142.3167516600121
 30
0.0
 10
314.245519125033
 20
142.3297118931168
 30
0.0
 10
314.2866903957883
 20
142.342078419205
 30
0.0
 10
314.8099541339914
 20
142.4992480720314
 30
0.0
 10
315.3371877694104
 20
142.6417873500693
 30
0.0
 10
315.8701854585779
 20
142.7618952275329
 30
0.0
 10
316.1964304267289
 20
142.8354125394023
 30
0.0
 10
316.5236897924966
 20
142.9048071426393
 30
0.0
 10
316.8516985800553
 20
142.9699881739992
 30
0.0
 10
317.0904223646557
 20
143.0174266681621
 30
0.0
 10
317.3307445365292
 20
143.0572452408803
 30
0.0
 10
317.5710467996644
 20
143.0961873402838
 30
0.0
 10
317.7756801880898
 20
143.1293491063974
 30
0.0
 10
317.9810539919721
 20
143.1582649044952
 30
0.0
 10
318.1865605207762
 20
143.1856028165803
 30
0.0
 10
318.3601220569633
 20
143.2086912869893
 30
0.0
 10
318.5341301177088
 20
143.2289460284715
 30
0.0
 10
318.708336317802
 20
143.2465245852126
 30
0.0
 10
318.8697260306211
 20
143.2628098331345
 30
0.0
 10
319.0315414112251
 20
143.2752854684407
 30
0.0
 10
319.1933567918292
 20
143.2868037141502
 30
0.0
 10
319.3171388980443
 20
143.2956146732701
 30
0.0
 10
319.4411437925211
 20
143.3033044752749
 30
0.0
 10
319.565173335912
 20
143.3061570408458
 30
0.0
 10
319.7604088518358
 20
143.3106473038192
 30
0.0
 10
319.9557799367871
 20
143.3137453345786
 30
0.0
 10
320.1510325173437
 20
143.3116472809326
 30
0.0
 10
320.3300699045919
 20
143.3097234602244
 30
0.0
 10
320.5087688432894
 20
143.2968759599799
 30
0.0
 10
320.6867406390223
 20
143.2754668097904
 30
0.0
 10
320.8704641640466
 20
143.2533657402158
 30
0.0
 10
321.0522669698449
 20
143.2220204390872
 30
0.0
 10
321.2291058635664
 20
143.1662094983548
 30
0.0
  0
SPLINE
  5
159
330
1F
100
AcDbEntity
  8
0
  6
Continuous
 62
     7
370
    15
100
AcDbSpline
210
0.0
220
0.0
230
1.0
 70
     8
 71
     3
 72
    17
 73
    13
 74
     0
 42
0.00000001
 43
0.00000001
 40
22.0
 40
22.0
 40
22.0
 40
22.0
 40
23.0
 40
23.0
 40
23.0
 40
24.0
 40
24.0
 40
24.0
 40
25.0
 40
25.0
 40
25.0
 40
26.0
 40
26.0
 40
26.0
 40
26.0
 10
317.4222687985259
 20
142.8940973376123
 30
0.0
 10
317.1438943915603
 20
142.8558356163769
 30
0.0
 10
316.8656934750283
 20
142.8155838804707
 30
0.0
 10
316.5884870473749
 20
142.7697280124963
 30
0.0
 10
316.2355496753889
 20
142.7113446302138
 30
0.0
 10
315.8828777532466
 20
142.6506870893486
 30
0.0
 10
315.5315733718169
 20
142.5832851671313
 30
0.0
 10
315.1416190191292
 20
142.5084677139237
 30
0.0
 10
314.7533085594021
 20
142.4250708980673
 30
0.0
 10
314.3643472735403
 20
142.3450935857665
 30
0.0
 10
314.2974581790903
 20
142.3313400249928
 30
0.0
 10
314.230892838646
 20
142.3160104150245
 30
0.0
 10
314.1634505656824
 20
142.3040674236422
 30
0.0
  0
SPLINE
  5
15A
330
1F
100
AcDbEntity
  8
0
  6
Continuous
 62
     7
370
    15
100
AcDbSpline
210
0.0
220
0.0
230
1.0
 70
     8
 71
     3
 72
    23
 73
    19
 74
     0
 42
0.00000001
 43
0.00000001
 40
16.0
 40
16.0
 40
16.0
 40
16.0
 40
17.0
 40
17.0
 40
17.0
 40
18.0
 40
18.0
 40
18.0
 40
19.0
 40
19.0
 40
19.0
 40
20.0
 40
20.0
 40
20.0
 40
21.0
 40
21.0
 40
21.0
 40
22.0
 40
22.0
 40
22.0
 40
22.0
 10
320.382518053528
 20
143.0318450978412
 30
0.0
 10
320.2343230940103
 20
143.0512458374043
 30
0.0
 10
320.0855460409069
 20
143.0637857057956
 30
0.0
 10
319.9361774138662
 20
143.0672899696193
 30
0.0
 10
319.7913678878907
 20
143.0706872832269
 30
0.0
 10
319.6464853632081
 20
143.0734775876999
 30
0.0
 10
319.5016559284943
 20
143.0726501603914
 30
0.0
 10
319.3833819065356
 20
143.07197447796
 30
0.0
 10
319.2650263535535
 20
143.0676501044742
 30
0.0
 10
319.1469106534658
 20
143.061214190061
 30
0.0
 10
318.9778323755315
 20
143.0520013621714
 30
0.0
 10
318.8087967591793
 20
143.0411798667526
 30
0.0
 10
318.6400066839323
 20
143.0277318695602
 30
0.0
 10
318.4680065616472
 20
143.0140281695105
 30
0.0
 10
318.2960491009441
 20
142.9988158492667
 30
0.0
 10
318.1245751381706
 20
142.9797462406078
 30
0.0
 10
317.8901905104792
 20
142.9536801324977
 30
0.0
 10
317.6558874138112
 20
142.9262073475986
 30
0.0
 10
317.4222687985259
 20
142.8940973376123
 30
0.0
  0
SPLINE
  5
15B
330
1F
100
AcDbEntity
  8
0
  6
Continuous
 62
     7
370
    15
100
AcDbSpline
210
0.0
220
0.0
230
1.0
 70
     8
 71
     3
 72
     8
 73
     4
 74
     0
 42
0.00000001
 43
0.00000001
 40
15.0
 40
15.0
 40
15.0
 40
15.0
 40
16.0
 40
16.0
 40
16.0
 40
16.0
 10
320.7804188368933
 20
142.9496738248066
 30
0.0
 10
320.6504441650391
 20
142.9897317764017
 30
0.0
 10
320.5171949797561
 20
143.0142142214099
 30
0.0
 10
320.382518053528
 20
143.0318450978412
 30
0.0
  0
SPLINE
  5
15C
330
1F
100
AcDbEntity
  8
0
  6
Continuous
 62
     7
370
    15
100
AcDbSpline
210
0.0
220
0.0
230
1.0
 70
     8
 71
     3
 72
     8
 73
     4
 74
     0
 42
0.00000001
 43
0.00000001
 40
14.0
 40
14.0
 40
14.0
 40
14.0
 40
15.0
 40
15.0
 40
15.0
 40
15.0
 10
321.0908482085541
 20
142.7991442990912
 30
0.0
 10
320.9983332498194
 20
142.8717346399608
 30
0.0
 10
320.8915351934241
 20
142.9154278027355
 30
0.0
 10
320.7804188368933
 20
142.9496738248066
 30
0.0
  0
SPLINE
  5
15D
330
1F
100
AcDbEntity
  8
0
  6
Continuous
 62
     7
370
    15
100
AcDbSpline
210
0.0
220
0.0
230
1.0
 70
     8
 71
     3
 72
     8
 73
     4
 74
     0
 42
0.00000001
 43
0.00000001
 40
13.0
 40
13.0
 40
13.0
 40
13.0
 40
14.0
 40
14.0
 40
14.0
 40
14.0
 10
321.2461411072848
 20
142.4871921459612
 30
0.0
 10
321.2500707130064
 20
142.6185795087023
 30
0.0
 10
321.1918954836929
 20
142.7198587561933
 30
0.0
 10
321.0908482085541
 20
142.7991442990912
 30
0.0
  0
SPLINE
  5
15E
330
1F
100
AcDbEntity
  8
0
  6
Continuous
 62
     7
370
    15
100
AcDbSpline
210
0.0
220
0.0
230
1.0
 70
     8
 71
     3
 72
     8
 73
     4
 74
     0
 42
0.00000001
 43
0.00000001
 40
12.0
 40
12.0
 40
12.0
 40
12.0
 40
13.0
 40
13.0
 40
13.0
 40
13.0
 10
321.2018308921278
 20
142.2976242212088
 30
0.0
 10
321.2269433953755
 20
142.3583751435368
 30
0.0
 10
321.2441691941602
 20
142.4212438578991
 30
0.0
 10
321.2461411072848
 20
142.4871921459612
 30
0.0
  0
SPLINE
  5
15F
330
1F
100
AcDbEntity
  8
0
  6
Continuous
 62
     7
370
    15
100
AcDbSpline
210
0.0
220
0.0
230
1.0
 70
     8
 71
     3
 72
     8
 73
     4
 74
     0
 42
0.00000001
 43
0.00000001
 40
11.0
 40
11.0
 40
11.0
 40
11.0
 40
12.0
 40
12.0
 40
12.0
 40
12.0
 10
320.9683838712057
 20
141.9355220748652
 30
0.0
 10
321.0617065558934
 20
142.0461174860778
 30
0.0
 10
321.146066516216
 20
142.1627252177454
 30
0.0
 10
321.2018308921278
 20
142.2976242212088
 30
0.0
  0
SPLINE
  5
160
330
1F
100
AcDbEntity
  8
0
  6
Continuous
 62
     7
370
    15
100
AcDbSpline
210
0.0
220
0.0
230
1.0
 70
     8
 71
     3
 72
    11
 73
     7
 74
     0
 42
0.00000001
 43
0.00000001
 40
9.0
 40
9.0
 40
9.0
 40
9.0
 40
10.0
 40
10.0
 40
10.0
 40
11.0
 40
11.0
 40
11.0
 40
11.0
 10
319.505847191919
 20
140.7343349872124
 30
0.0
 10
319.830886733369
 20
140.9537975415482
 30
0.0
 10
320.1494625711253
 20
141.1820258659452
 30
0.0
 10
320.4503784099953
 20
141.434006855663
 30
0.0
 10
320.6350831514063
 20
141.5886751177303
 30
0.0
 10
320.8126321234595
 20
141.7509433036257
 30
0.0
 10
320.9683838712057
 20
141.9355220748652
 30
0.0
  0
SPLINE
  5
161
330
1F
100
AcDbEntity
  8
0
  6
Continuous
 62
     7
370
    15
100
AcDbSpline
210
0.0
220
0.0
230
1.0
 70
     8
 71
     3
 72
     8
 73
     4
 74
     0
 42
0.00000001
 43
0.00000001
 40
8.0
 40
8.0
 40
8.0
 40
8.0
 40
9.0
 40
9.0
 40
9.0
 40
9.0
 10
319.4827549515888
 20
140.7184606125425
 30
0.0
 10
319.4927216451841
 20
140.7253168027908
 30
0.0
 10
319.499247919198
 20
140.7298796959967
 30
0.0
 10
319.505847191919
 20
140.7343349872124
 30
0.0
  0
SPLINE
  5
162
330
1F
100
AcDbEntity
  8
0
  6
Continuous
 62
     7
370
    15
100
AcDbSpline
210
0.0
220
0.0
230
1.0
 70
     8
 71
     3
 72
    14
 73
    10
 74
     0
 42
0.00000001
 43
0.00000001
 40
5.0
 40
5.0
 40
5.0
 40
5.0
 40
6.0
 40
6.0
 40
6.0
 40
7.0
 40
7.0
 40
7.0
 40
8.0
 40
8.0
 40
8.0
 40
8.0
 10
320.0493737595293
 20
140.7261216846383
 30
0.0
 10
320.0425024007185
 20
140.721222238952
 30
0.0
 10
320.0330571264591
 20
140.7173836446053
 30
0.0
 10
320.0247968961448
 20
140.7173606547528
 30
0.0
 10
319.8481258046459
 20
140.7168679134804
 30
0.0
 10
319.6714528170769
 20
140.7169885509541
 30
0.0
 10
319.4947807775429
 20
140.7170321605713
 30
0.0
 10
319.4924050014419
 20
140.7170328715976
 30
0.0
 10
319.4900301733761
 20
140.7175746736893
 30
0.0
 10
319.4827549515888
 20
140.7184606125425
 30
0.0
  0
SPLINE
  5
163
330
1F
100
AcDbEntity
  8
0
  6
Continuous
 62
     7
370
    15
100
AcDbSpline
210
0.0
220
0.0
230
1.0
 70
     8
 71
     3
 72
     8
 73
     4
 74
     0
 42
0.00000001
 43
0.00000001
 40
4.0
 40
4.0
 40
4.0
 40
4.0
 40
5.0
 40
5.0
 40
5.0
 40
5.0
 10
320.4371798645533
 20
141.0043451170053
 30
0.0
 10
320.3094273871049
 20
140.9095579550104
 30
0.0
 10
320.1789104391414
 20
140.8184908829678
 30
0.0
 10
320.0493737595293
 20
140.7261216846383
 30
0.0
  0
SPLINE
  5
164
330
1F
100
AcDbEntity
  8
0
  6
Continuous
 62
     7
370
    15
100
AcDbSpline
210
0.0
220
0.0
230
1.0
 70
     8
 71
     3
 72
     8
 73
     4
 74
     0
 42
0.00000001
 43
0.00000001
 40
3.0
 40
3.0
 40
3.0
 40
3.0
 40
4.0
 40
4.0
 40
4.0
 40
4.0
 10
321.2907177203205
 20
141.7305462087397
 30
0.0
 10
321.0282048895501
 20
141.4626648918897
 30
0.0
 10
320.7377894880681
 20
141.2273843709759
 30
0.0
 10
320.4371798645533
 20
141.0043451170053
 30
0.0
  0
SPLINE
  5
165
330
1F
100
AcDbEntity
  8
0
  6
Continuous
 62
     7
370
    15
100
AcDbSpline
210
0.0
220
0.0
230
1.0
 70
     8
 71
     3
 72
     8
 73
     4
 74
     0
 42
0.00000001
 43
0.00000001
 40
2.0
 40
2.0
 40
2.0
 40
2.0
 40
3.0
 40
3.0
 40
3.0
 40
3.0
 10
321.6183634104143
 20
142.1259032952771
 30
0.0
 10
321.5234650912975
 20
141.982314364565
 30
0.0
 10
321.4108982409779
 20
141.8531852215655
 30
0.0
 10
321.2907177203205
 20
141.7305462087397
 30
0.0
  0
SPLINE
  5
166
330
1F
100
AcDbEntity
  8
0
  6
Continuous
 62
     7
370
    15
100
AcDbSpline
210
0.0
220
0.0
230
1.0
 70
     8
 71
     3
 72
     8
 73
     4
 74
     0
 42
0.00000001
 43
0.00000001
 40
1.0
 40
1.0
 40
1.0
 40
1.0
 40
2.0
 40
2.0
 40
2.0
 40
2.0
 10
321.7829224047599
 20
142.4871513804495
 30
0.0
 10
321.7542917430483
 20
142.3548508228444
 30
0.0
 10
321.6921793237318
 20
142.2375915540158
 30
0.0
 10
321.6183634104143
 20
142.1259032952771
 30
0.0
  0
SPLINE
  5
167
330
1F
100
AcDbEntity
  8
0
  6
Continuous
 62
     7
370
    15
100
AcDbSpline
210
0.0
220
0.0
230
1.0
 70
     8
 71
     3
 72
     8
 73
     4
 74
     0
 42
0.00000001
 43
0.00000001
 40
0.0
 40
0.0
 40
0.0
 40
0.0
 40
1.0
 40
1.0
 40
1.0
 40
1.0
 10
321.7973164225336
 20
142.5687647644208
 30
0.0
 10
321.7925715065778
 20
142.5415488081707
 30
0.0
 10
321.7887613532858
 20
142.5141305056671
 30
0.0
 10
321.7829224047599
 20
142.4871513804495
 30
0.0
  0
LINE
  5
168
330
1F
100
AcDbEntity
  8
0
  6
Continuous
 62
     7
370
    15
100
AcDbLine
 10
311.0264770958
 20
139.5152720174
 30
0.0
 11
311.0264770958
 21
138.8452577189
 31
0.0
  0
LINE
  5
169
330
1F
100
AcDbEntity
  8
0
  6
Continuous
 62
     7
370
    15
100
AcDbLine
 10
311.3737859104
 20
138.8452577189
 30
0.0
 11
311.0264770958
 21
139.5152720174
 31
0.0
  0
LINE
  5
16A
330
1F
100
AcDbEntity
  8
0
  6
Continuous
 62
     7
370
    15
100
AcDbLine
 10
311.5468107436
 20
138.8452577189
 30
0.0
 11
311.3737859104
 21
138.8452577189
 31
0.0
  0
LINE
  5
16B
330
1F
100
AcDbEntity
  8
0
  6
Continuous
 62
     7
370
    15
100
AcDbLine
 10
311.5468107436
 20
139.8725852155
 30
0.0
 11
311.5468107436
 21
138.8452577189
 31
0.0
  0
LINE
  5
16C
330
1F
100
AcDbEntity
  8
0
  6
Continuous
 62
     7
370
    15
100
AcDbLine
 10
311.3867126677
 20
139.8725852155
 30
0.0
 11
311.5468107436
 21
139.8725852155
 31
0.0
  0
LINE
  5
16D
330
1F
100
AcDbEntity
  8
0
  6
Continuous
 62
     7
370
    15
100
AcDbLine
 10
311.3867126677
 20
139.1865188739
 30
0.0
 11
311.3867126677
 21
139.8725852155
 31
0.0
  0
LINE
  5
16E
330
1F
100
AcDbEntity
  8
0
  6
Continuous
 62
     7
370
    15
100
AcDbLine
 10
311.033562598
 20
139.8725852155
 30
0.0
 11
311.3867126677
 21
139.1865188739
 31
0.0
  0
LINE
  5
16F
330
1F
100
AcDbEntity
  8
0
  6
Continuous
 62
     7
370
    15
100
AcDbLine
 10
310.8663715694
 20
139.8725852155
 30
0.0
 11
311.033562598
 21
139.8725852155
 31
0.0
  0
LINE
  5
170
330
1F
100
AcDbEntity
  8
0
  6
Continuous
 62
     7
370
    15
100
AcDbLine
 10
310.8663715694
 20
138.8452577189
 30
0.0
 11
310.8663715694
 21
139.8725852155
 31
0.0
  0
LINE
  5
171
330
1F
100
AcDbEntity
  8
0
  6
Continuous
 62
     7
370
    15
100
AcDbLine
 10
311.0264770958
 20
138.8452577189
 30
0.0
 11
310.8663715694
 21
138.8452577189
 31
0.0
  0
LINE
  5
172
330
1F
100
AcDbEntity
  8
0
  6
Continuous
 62
     7
370
    15
100
AcDbLine
 10
312.5474535201
 20
139.7010165051
 30
0.0
 11
312.523276386
 21
139.5123534853
 31
0.0
  0
LINE
  5
173
330
1F
100
AcDbEntity
  8
0
  6
Continuous
 62
     7
370
    15
100
AcDbLine
 10
312.5474535201
 20
139.8725852155
 30
0.0
 11
312.5474535201
 21
139.7010165051
 31
0.0
  0
LINE
  5
174
330
1F
100
AcDbEntity
  8
0
  6
Continuous
 62
     7
370
    15
100
AcDbLine
 10
312.3873554442
 20
139.8725852155
 30
0.0
 11
312.5474535201
 21
139.8725852155
 31
0.0
  0
LINE
  5
175
330
1F
100
AcDbEntity
  8
0
  6
Continuous
 62
     7
370
    15
100
AcDbLine
 10
312.3873554442
 20
139.7010165051
 30
0.0
 11
312.3873554442
 21
139.8725852155
 31
0.0
  0
LINE
  5
176
330
1F
100
AcDbEntity
  8
0
  6
Continuous
 62
     7
370
    15
100
AcDbLine
 10
312.4148704383
 20
139.5123534853
 30
0.0
 11
312.3873554442
 21
139.7010165051
 31
0.0
  0
LINE
  5
177
330
1F
100
AcDbEntity
  8
0
  6
Continuous
 62
     7
370
    15
100
AcDbLine
 10
312.523276386
 20
139.5123534853
 30
0.0
 11
312.4148704383
 21
139.5123534853
 31
0.0
  0
LINE
  5
178
330
1F
100
AcDbEntity
  8
0
  6
Continuous
 62
     7
370
    15
100
AcDbLine
 10
313.9350123975
 20
139.2321732378
 30
0.0
 11
313.9350123975
 21
138.8452577189
 31
0.0
  0
LINE
  5
179
330
1F
100
AcDbEntity
  8
0
  6
Continuous
 62
     7
370
    15
100
AcDbLine
 10
314.0507124636
 20
139.2321732378
 30
0.0
 11
313.9350123975
 21
139.2321732378
 31
0.0
  0
SPLINE
  5
17A
330
1F
100
AcDbEntity
  8
0
  6
Continuous
 62
     7
370
    15
100
AcDbSpline
210
0.0
220
0.0
230
1.0
 70
     8
 71
     3
 72
    31
 73
    27
 74
     0
 42
0.00000001
 43
0.00000001
 40
0.0
 40
0.0
 40
0.0
 40
0.0
 40
0.0473081968099993
 40
0.0929418537551017
 40
0.1366496566048086
 40
0.1789911096052516
 40
0.2198074125543646
 40
0.2595411281041053
 40
0.298367254663417
 40
0.3363190553292774
 40
0.3732878647790733
 40
0.4087522471251172
 40
0.4433760160399902
 40
0.4763175158420009
 40
0.5090307005540297
 40
0.5410186260392711
 40
0.5723644228332226
 40
0.6036915013711234
 40
0.637079093037806
 40
0.6744267558619692
 40
0.7165629924420127
 40
0.7633363970103001
 40
0.8149280111948924
 40
0.8717760893872897
 40
0.9332043234530097
 40
1.0
 40
1.0
 40
1.0
 40
1.0
 10
314.4286659027836
 20
139.5555062513938
 30
0.0
 10
314.4285700584749
 20
139.5463985283995
 30
0.0
 10
314.4283817624008
 20
139.5285054630187
 30
0.0
 10
314.4261875906045
 20
139.5022769031926
 30
0.0
 10
314.4229385127082
 20
139.4771308576512
 30
0.0
 10
314.4181828111131
 20
139.4531566851875
 30
0.0
 10
314.4118657693135
 20
139.4303428138462
 30
0.0
 10
314.4043525686499
 20
139.4086172473604
 30
0.0
 10
314.3956937247495
 20
139.387903730723
 30
0.0
 10
314.3854002164927
 20
139.3685516192978
 30
0.0
 10
314.3741761598328
 20
139.3504983091443
 30
0.0
 10
314.3622452644101
 20
139.3336817494422
 30
0.0
 10
314.3496421349707
 20
139.3183429722453
 30
0.0
 10
314.3362647676752
 20
139.3044186680899
 30
0.0
 10
314.322483172042
 20
139.2915959101034
 30
0.0
 10
314.307522915984
 20
139.2806916452221
 30
0.0
 10
314.2922803165193
 20
139.270691435175
 30
0.0
 10
314.2758469069241
 20
139.2621288333257
 30
0.0
 10
314.2575006430704
 20
139.2550302165152
 30
0.0
 10
314.2366889656356
 20
139.2487267029231
 30
0.0
 10
314.2129010195508
 20
139.243643176376
 30
0.0
 10
314.1861570027268
 20
139.2395764848293
 30
0.0
 10
314.1564592452473
 20
139.2362747022971
 30
0.0
 10
314.1238522324409
 20
139.2338000853549
 30
0.0
 10
314.0882520756443
 20
139.2323412908946
 30
0.0
 10
314.0635713758768
 20
139.2322308211161
 30
0.0
 10
314.0507144599495
 20
139.2321732740989
 30
0.0
  0
SPLINE
  5
17B
330
1F
100
AcDbEntity
  8
0
  6
Continuous
 62
     7
370
    15
100
AcDbSpline
210
0.0
220
0.0
230
1.0
 70
     8
 71
     3
 72
    23
 73
    19
 74
     0
 42
0.00000001
 43
0.00000001
 40
0.0
 40
0.0
 40
0.0
 40
0.0
 40
0.0528843725830149
 40
0.1052229986451065
 40
0.1584437985097263
 40
0.2118189336307601
 40
0.2662764184722476
 40
0.3222406499069727
 40
0.3805384529531223
 40
0.4406528863778623
 40
0.5030551427798907
 40
0.5663660499222948
 40
0.6315777082410504
 40
0.6994597758188066
 40
0.7700475579085181
 40
0.8431668485007162
 40
0.9197407789958089
 40
0.9999999999999999
 40
0.9999999999999999
 40
0.9999999999999999
 40
0.9999999999999999
 10
314.2539702000285
 20
139.8577840186908
 30
0.0
 10
314.2601964586173
 20
139.8555968822083
 30
0.0
 10
314.2725847231848
 20
139.8512451796562
 30
0.0
 10
314.2904926668733
 20
139.8427966832617
 30
0.0
 10
314.3075409064841
 20
139.8326204748496
 30
0.0
 10
314.3236860985838
 20
139.8206153630273
 30
0.0
 10
314.3389423434226
 20
139.806994100327
 30
0.0
 10
314.3534381872137
 20
139.7916980443783
 30
0.0
 10
314.3668584870478
 20
139.7745547117864
 30
0.0
 10
314.3796650889722
 20
139.7559733757684
 30
0.0
 10
314.3912899970077
 20
139.7358904738856
 30
0.0
 10
314.4013855515404
 20
139.7142822196817
 30
0.0
 10
314.4095962427769
 20
139.6911789758234
 30
0.0
 10
314.4167968482098
 20
139.6667984736051
 30
0.0
 10
314.4221478126593
 20
139.6409244894207
 30
0.0
 10
314.4258296746634
 20
139.613684646874
 30
0.0
 10
314.4281727831664
 20
139.5850798446962
 30
0.0
 10
314.4284989746116
 20
139.5655173434238
 30
0.0
 10
314.4286659027836
 20
139.5555062513938
 30
0.0
  0
SPLINE
  5
17C
330
1F
100
AcDbEntity
  8
0
  6
Continuous
 62
     7
370
    15
100
AcDbSpline
210
0.0
220
0.0
230
1.0
 70
     8
 71
     3
 72
    15
 73
    11
 74
     0
 42
0.00000001
 43
0.00000001
 40
0.0
 40
0.0
 40
0.0
 40
0.0
 40
0.1815471399806945
 40
0.347734765787868
 40
0.4965847209735684
 40
0.6301745352457142
 40
0.7465286147133035
 40
0.8467773963192159
 40
0.9310887716172729
 40
1.0
 40
1.0
 40
1.0
 40
1.0
 10
314.0517567970781
 20
139.8725852059171
 30
0.0
 10
314.0640564408894
 20
139.8725418405597
 30
0.0
 10
314.0876151362257
 20
139.8724587787037
 30
0.0
 10
314.1212572400662
 20
139.8719295607333
 30
0.0
 10
314.1516270450925
 20
139.870633957103
 30
0.0
 10
314.1785977072646
 20
139.8690280170313
 30
0.0
 10
314.2022442978223
 20
139.8670007144804
 30
0.0
 10
314.2224710226832
 20
139.8644914587603
 30
0.0
 10
314.2394699297268
 20
139.8618562319647
 30
0.0
 10
314.2494718693191
 20
139.85904731666
 30
0.0
 10
314.2539702000285
 20
139.8577840186908
 30
0.0
  0
LINE
  5
17D
330
1F
100
AcDbEntity
  8
0
  6
Continuous
 62
     7
370
    15
100
AcDbLine
 10
313.7749143217
 20
139.8725852155
 30
0.0
 11
314.0517555449
 21
139.8725852155
 31
0.0
  0
LINE
  5
17E
330
1F
100
AcDbEntity
  8
0
  6
Continuous
 62
     7
370
    15
100
AcDbLine
 10
313.7749143217
 20
138.8452577189
 30
0.0
 11
313.7749143217
 21
139.8725852155
 31
0.0
  0
LINE
  5
17F
330
1F
100
AcDbEntity
  8
0
  6
Continuous
 62
     7
370
    15
100
AcDbLine
 10
313.9350123975
 20
138.8452577189
 30
0.0
 11
313.7749143217
 21
138.8452577189
 31
0.0
  0
LINE
  5
180
330
1F
100
AcDbEntity
  8
0
  6
Continuous
 62
     7
370
    15
100
AcDbLine
 10
315.7495118949
 20
139.6991402976
 30
0.0
 11
315.7495118949
 21
138.8452577189
 31
0.0
  0
LINE
  5
181
330
1F
100
AcDbEntity
  8
0
  6
Continuous
 62
     7
370
    15
100
AcDbLine
 10
315.9896664593
 20
139.6991402976
 30
0.0
 11
315.7495118949
 21
139.6991402976
 31
0.0
  0
LINE
  5
182
330
1F
100
AcDbEntity
  8
0
  6
Continuous
 62
     7
370
    15
100
AcDbLine
 10
315.9896664593
 20
139.8725852155
 30
0.0
 11
315.9896664593
 21
139.6991402976
 31
0.0
  0
LINE
  5
183
330
1F
100
AcDbEntity
  8
0
  6
Continuous
 62
     7
370
    15
100
AcDbLine
 10
315.3492592547
 20
139.8725852155
 30
0.0
 11
315.9896664593
 21
139.8725852155
 31
0.0
  0
LINE
  5
184
330
1F
100
AcDbEntity
  8
0
  6
Continuous
 62
     7
370
    15
100
AcDbLine
 10
315.3492592547
 20
139.6991402976
 30
0.0
 11
315.3492592547
 21
139.8725852155
 31
0.0
  0
LINE
  5
185
330
1F
100
AcDbEntity
  8
0
  6
Continuous
 62
     7
370
    15
100
AcDbLine
 10
315.5894138191
 20
139.6991402976
 30
0.0
 11
315.3492592547
 21
139.6991402976
 31
0.0
  0
LINE
  5
186
330
1F
100
AcDbEntity
  8
0
  6
Continuous
 62
     7
370
    15
100
AcDbLine
 10
315.5894138191
 20
138.8452577189
 30
0.0
 11
315.5894138191
 21
139.6991402976
 31
0.0
  0
LINE
  5
187
330
1F
100
AcDbEntity
  8
0
  6
Continuous
 62
     7
370
    15
100
AcDbLine
 10
315.7495118949
 20
138.8452577189
 30
0.0
 11
315.5894138191
 21
138.8452577189
 31
0.0
  0
LINE
  5
188
330
1F
100
AcDbEntity
  8
0
  6
Continuous
 62
     7
370
    15
100
AcDbLine
 10
317.0837097142
 20
139.5152720174
 30
0.0
 11
317.0837097142
 21
138.8452577189
 31
0.0
  0
LINE
  5
189
330
1F
100
AcDbEntity
  8
0
  6
Continuous
 62
     7
370
    15
100
AcDbLine
 10
317.4310110781
 20
138.8452577189
 30
0.0
 11
317.0837097142
 21
139.5152720174
 31
0.0
  0
LINE
  5
18A
330
1F
100
AcDbEntity
  8
0
  6
Continuous
 62
     7
370
    15
100
AcDbLine
 10
317.6040433619
 20
138.8452577189
 30
0.0
 11
317.4310110781
 21
138.8452577189
 31
0.0
  0
LINE
  5
18B
330
1F
100
AcDbEntity
  8
0
  6
Continuous
 62
     7
370
    15
100
AcDbLine
 10
317.6040433619
 20
139.8725852155
 30
0.0
 11
317.6040433619
 21
138.8452577189
 31
0.0
  0
LINE
  5
18C
330
1F
100
AcDbEntity
  8
0
  6
Continuous
 62
     7
370
    15
100
AcDbLine
 10
317.4439378354
 20
139.8725852155
 30
0.0
 11
317.6040433619
 21
139.8725852155
 31
0.0
  0
LINE
  5
18D
330
1F
100
AcDbEntity
  8
0
  6
Continuous
 62
     7
370
    15
100
AcDbLine
 10
317.4439378354
 20
139.1865188739
 30
0.0
 11
317.4439378354
 21
139.8725852155
 31
0.0
  0
LINE
  5
18E
330
1F
100
AcDbEntity
  8
0
  6
Continuous
 62
     7
370
    15
100
AcDbLine
 10
317.0907952163
 20
139.8725852155
 30
0.0
 11
317.4439378354
 21
139.1865188739
 31
0.0
  0
LINE
  5
18F
330
1F
100
AcDbEntity
  8
0
  6
Continuous
 62
     7
370
    15
100
AcDbLine
 10
316.9236041877
 20
139.8725852155
 30
0.0
 11
317.0907952163
 21
139.8725852155
 31
0.0
  0
LINE
  5
190
330
1F
100
AcDbEntity
  8
0
  6
Continuous
 62
     7
370
    15
100
AcDbLine
 10
316.9236041877
 20
138.8452577189
 30
0.0
 11
316.9236041877
 21
139.8725852155
 31
0.0
  0
LINE
  5
191
330
1F
100
AcDbEntity
  8
0
  6
Continuous
 62
     7
370
    15
100
AcDbLine
 10
317.0837097142
 20
138.8452577189
 30
0.0
 11
316.9236041877
 21
138.8452577189
 31
0.0
  0
LINE
  5
192
330
1F
100
AcDbEntity
  8
0
  6
Continuous
 62
     7
370
    15
100
AcDbLine
 10
319.138363776
 20
139.0187025786
 30
0.0
 11
319.138363776
 21
138.8452577189
 31
0.0
  0
LINE
  5
193
330
1F
100
AcDbEntity
  8
0
  6
Continuous
 62
     7
370
    15
100
AcDbLine
 10
318.6580546472
 20
139.0187025786
 30
0.0
 11
319.138363776
 21
139.0187025786
 31
0.0
  0
LINE
  5
194
330
1F
100
AcDbEntity
  8
0
  6
Continuous
 62
     7
370
    15
100
AcDbLine
 10
318.6580546472
 20
139.2988828261
 30
0.0
 11
318.6580546472
 21
139.0187025786
 31
0.0
  0
LINE
  5
195
330
1F
100
AcDbEntity
  8
0
  6
Continuous
 62
     7
370
    15
100
AcDbLine
 10
319.098339257
 20
139.2988828261
 30
0.0
 11
318.6580546472
 21
139.2988828261
 31
0.0
  0
LINE
  5
196
330
1F
100
AcDbEntity
  8
0
  6
Continuous
 62
     7
370
    15
100
AcDbLine
 10
319.098339257
 20
139.4589858496
 30
0.0
 11
319.098339257
 21
139.2988828261
 31
0.0
  0
LINE
  5
197
330
1F
100
AcDbEntity
  8
0
  6
Continuous
 62
     7
370
    15
100
AcDbLine
 10
318.6580546472
 20
139.4589858496
 30
0.0
 11
319.098339257
 21
139.4589858496
 31
0.0
  0
LINE
  5
198
330
1F
100
AcDbEntity
  8
0
  6
Continuous
 62
     7
370
    15
100
AcDbLine
 10
318.6580546472
 20
139.6991402976
 30
0.0
 11
318.6580546472
 21
139.4589858496
 31
0.0
  0
LINE
  5
199
330
1F
100
AcDbEntity
  8
0
  6
Continuous
 62
     7
370
    15
100
AcDbLine
 10
319.1250197861
 20
139.6991402976
 30
0.0
 11
318.6580546472
 21
139.6991402976
 31
0.0
  0
LINE
  5
19A
330
1F
100
AcDbEntity
  8
0
  6
Continuous
 62
     7
370
    15
100
AcDbLine
 10
319.1250197861
 20
139.8725852155
 30
0.0
 11
319.1250197861
 21
139.6991402976
 31
0.0
  0
LINE
  5
19B
330
1F
100
AcDbEntity
  8
0
  6
Continuous
 62
     7
370
    15
100
AcDbLine
 10
318.4979491208
 20
139.8725852155
 30
0.0
 11
319.1250197861
 21
139.8725852155
 31
0.0
  0
LINE
  5
19C
330
1F
100
AcDbEntity
  8
0
  6
Continuous
 62
     7
370
    15
100
AcDbLine
 10
318.4979491208
 20
138.8452577189
 30
0.0
 11
318.4979491208
 21
139.8725852155
 31
0.0
  0
LINE
  5
19D
330
1F
100
AcDbEntity
  8
0
  6
Continuous
 62
     7
370
    15
100
AcDbLine
 10
319.138363776
 20
138.8452577189
 30
0.0
 11
318.4979491208
 21
138.8452577189
 31
0.0
  0
LINE
  5
19E
330
1F
100
AcDbEntity
  8
0
  6
Continuous
 62
     7
370
    15
100
AcDbLine
 10
330.051624057
 20
135.5845337052
 30
0.0
 11
214.7002504363
 21
135.5845337052
 31
0.0
  0
LINE
  5
19F
330
1F
100
AcDbEntity
  8
0
  6
Continuous
 62
     7
370
    15
100
AcDbLine
 10
214.7002504363
 20
145.1059817587
 30
0.0
 11
330.051624057
 21
145.1059817587
 31
0.0
  0
ARC
  5
1A0
330
1F
100
AcDbEntity
  8
0
  6
Continuous
 62
     7
370
    15
100
AcDbCircle
 10
330.0516237113
 20
140.345257732
 30
0.0
 40
4.760724030218455
100
AcDbArc
 50
270.0
 51
90.0
  0
SPLINE
  5
1A1
330
1F
100
AcDbEntity
  8
0
  6
Continuous
 62
     7
370
    15
100
AcDbSpline
210
0.0
220
0.0
230
1.0
 70
     8
 71
     3
 72
    15
 73
    11
 74
     0
 42
0.00000001
 43
0.00000001
 40
0.0
 40
0.0
 40
0.0
 40
0.0
 40
0.0729448727218808
 40
0.1608779575796054
 40
0.2639516155366239
 40
0.3807514877469095
 40
0.5128730946367033
 40
0.660307542789417
 40
0.823145261211908
 40
1.0
 40
1.0
 40
1.0
 40
1.0
 10
319.675791008208
 20
139.6899677409845
 30
0.0
 10
319.6722535724561
 20
139.6906997383889
 30
0.0
 10
319.6644518529166
 20
139.6923141390036
 30
0.0
 10
319.6514957416355
 20
139.6940745021158
 30
0.0
 10
319.6363510331186
 20
139.6957859149502
 30
0.0
 10
319.6189569549488
 20
139.6969181266215
 30
0.0
 10
319.5993648412855
 20
139.6980362546868
 30
0.0
 10
319.5774656515326
 20
139.6985505948302
 30
0.0
 10
319.5533529025863
 20
139.6989933069084
 30
0.0
 10
319.5365350479978
 20
139.6990899777761
 30
0.0
 10
319.5277791359453
 20
139.6991403077163
 30
0.0
  0
SPLINE
  5
1A2
330
1F
100
AcDbEntity
  8
0
  6
Continuous
 62
     7
370
    15
100
AcDbSpline
210
0.0
220
0.0
230
1.0
 70
     8
 71
     3
 72
    23
 73
    19
 74
     0
 42
0.00000001
 43
0.00000001
 40
0.0
 40
0.0
 40
0.0
 40
0.0
 40
0.0692785959649233
 40
0.1354627749323264
 40
0.1970056626194007
 40
0.2555319336833391
 40
0.310062554003225
 40
0.3616267438686794
 40
0.4087279642659927
 40
0.4530790406333918
 40
0.5348019656838288
 40
0.6099022385730114
 40
0.6802051952475909
 40
0.7465040569553201
 40
0.8102748019791463
 40
0.8728342735888316
 40
0.9357397386928049
 40
1.0
 40
1.0
 40
1.0
 40
1.0
 10
319.8321415774995
 20
139.3564198598292
 30
0.0
 10
319.8321233679163
 20
139.3656627680707
 30
0.0
 10
319.8320877621043
 20
139.3837357382484
 30
0.0
 10
319.831180586289
 20
139.4100053271582
 30
0.0
 10
319.8299972072491
 20
139.4348258035839
 30
0.0
 10
319.8281705032826
 20
139.4580531371454
 30
0.0
 10
319.8255980122137
 20
139.4798672039984
 30
0.0
 10
319.8227611199061
 20
139.5001084211077
 30
0.0
 10
319.8194419276298
 20
139.5189049965904
 30
0.0
 10
319.8142698777295
 20
139.5414259790032
 30
0.0
 10
319.8065813954855
 20
139.5671993744312
 30
0.0
 10
319.7943700834389
 20
139.5950069254893
 30
0.0
 10
319.7800569105395
 20
139.6194484257608
 30
0.0
 10
319.7632127613938
 20
139.6403392828641
 30
0.0
 10
319.744244846932
 20
139.6578073614103
 30
0.0
 10
319.7234114218336
 20
139.6722025841696
 30
0.0
 10
319.700478054476
 20
139.6832675889426
 30
0.0
 10
319.6840782635749
 20
139.6877185504428
 30
0.0
 10
319.675791008208
 20
139.6899677409845
 30
0.0
  0
SPLINE
  5
1A3
330
1F
100
AcDbEntity
  8
0
  6
Continuous
 62
     7
370
    15
100
AcDbSpline
210
0.0
220
0.0
230
1.0
 70
     8
 71
     3
 72
    27
 73
    23
 74
     0
 42
0.00000001
 43
0.00000001
 40
0.0
 40
0.0
 40
0.0
 40
0.0
 40
0.0429245366025362
 40
0.0825163392263113
 40
0.1196072189288632
 40
0.1534842688284723
 40
0.1840733179975952
 40
0.2123803192990808
 40
0.2375902297072001
 40
0.260212359744265
 40
0.3020060870669236
 40
0.3426419038324466
 40
0.38240553021982
 40
0.4223180637581251
 40
0.4659687131164603
 40
0.5162161459445281
 40
0.5739911853513953
 40
0.6395401402483043
 40
0.7142274374601902
 40
0.7990441157676057
 40
0.8943560950833344
 40
1.0
 40
1.0
 40
1.0
 40
1.0
 10
319.581980666633
 20
139.0187026301595
 30
0.0
 10
319.5890705183292
 20
139.0187074458897
 30
0.0
 10
319.6026997535853
 20
139.0187167034486
 30
0.0
 10
319.6224238105407
 20
139.0197694036227
 30
0.0
 10
319.640677790337
 20
139.0204912575229
 30
0.0
 10
319.6573249035051
 20
139.022595353793
 30
0.0
 10
319.6725266510741
 20
139.0245176467963
 30
0.0
 10
319.6861593297847
 20
139.0272304926714
 30
0.0
 10
319.6983479930971
 20
139.0303366255623
 30
0.0
 10
319.7124269921918
 20
139.0349580781537
 30
0.0
 10
319.7281208848985
 20
139.0424867039138
 30
0.0
 10
319.7453518344122
 20
139.0530611697241
 30
0.0
 10
319.7607700529882
 20
139.0656990977917
 30
0.0
 10
319.7745723604188
 20
139.0807746330183
 30
0.0
 10
319.7868574872365
 20
139.0992358697727
 30
0.0
 10
319.7978672848143
 20
139.1218052564132
 30
0.0
 10
319.8074198440415
 20
139.1488699360426
 30
0.0
 10
319.8162437997779
 20
139.18037611853
 30
0.0
 10
319.8235375023454
 20
139.2168606910061
 30
0.0
 10
319.8285266083171
 20
139.258671981347
 30
0.0
 10
319.8316253401937
 20
139.3057848013804
 30
0.0
 10
319.8319636996053
 20
139.3389727333486
 30
0.0
 10
319.8321415774995
 20
139.3564198598292
 30
0.0
  0
LINE
  5
1A4
330
1F
100
AcDbEntity
  8
0
  6
Continuous
 62
     7
370
    15
100
AcDbLine
 10
319.5277758214
 20
139.6991402976
 30
0.0
 11
319.4452233884
 21
139.6991402976
 31
0.0
  0
LINE
  5
1A5
330
1F
100
AcDbEntity
  8
0
  6
Continuous
 62
     7
370
    15
100
AcDbLine
 10
319.4452233884
 20
139.0187025786
 30
0.0
 11
319.5819787953
 21
139.0187025786
 31
0.0
  0
LINE
  5
1A6
330
1F
100
AcDbEntity
  8
0
  6
Continuous
 62
     7
370
    15
100
AcDbLine
 10
319.4452233884
 20
139.6991402976
 30
0.0
 11
319.4452233884
 21
139.0187025786
 31
0.0
  0
SPLINE
  5
1A7
330
1F
100
AcDbEntity
  8
0
  6
Continuous
 62
     7
370
    15
100
AcDbSpline
210
0.0
220
0.0
230
1.0
 70
     8
 71
     3
 72
    17
 73
    13
 74
     0
 42
0.00000001
 43
0.00000001
 40
10.0
 40
10.0
 40
10.0
 40
10.0
 40
11.0
 40
11.0
 40
11.0
 40
12.0
 40
12.0
 40
12.0
 40
13.0
 40
13.0
 40
13.0
 40
14.0
 40
14.0
 40
14.0
 40
14.0
 10
319.0370760404659
 20
141.1789456997233
 30
0.0
 10
319.0554385334027
 20
141.3050542842113
 30
0.0
 10
319.051788598052
 20
141.4318820718696
 30
0.0
 10
319.0344973848415
 20
141.5579122064484
 30
0.0
 10
319.0247809725276
 20
141.6287324471773
 30
0.0
 10
318.9844667255533
 20
141.6742685902953
 30
0.0
 10
318.9113381377239
 20
141.6859562047074
 30
0.0
 10
318.8960349542355
 20
141.6884021354099
 30
0.0
 10
318.8805535401378
 20
141.6905539382053
 30
0.0
 10
318.8650939308487
 20
141.6910716839049
 30
0.0
 10
318.7616888922769
 20
141.6945350933385
 30
0.0
 10
318.6582677371075
 20
141.6975193895053
 30
0.0
 10
318.554852270149
 20
141.7006589264288
 30
0.0
  0
SPLINE
  5
1A8
330
1F
100
AcDbEntity
  8
0
  6
Continuous
 62
     7
370
    15
100
AcDbSpline
210
0.0
220
0.0
230
1.0
 70
     8
 71
     3
 72
    11
 73
     7
 74
     0
 42
0.00000001
 43
0.00000001
 40
8.0
 40
8.0
 40
8.0
 40
8.0
 40
9.0
 40
9.0
 40
9.0
 40
10.0
 40
10.0
 40
10.0
 40
10.0
 10
318.7421451475357
 20
141.0386073445523
 30
0.0
 10
318.7975938277406
 20
141.0397679765921
 30
0.0
 10
318.8534482669922
 20
141.04284695777
 30
0.0
 10
318.9081972972521
 20
141.0511472425697
 30
0.0
 10
318.9885375885132
 20
141.0633273612454
 30
0.0
 10
319.0254436491016
 20
141.0990614133722
 30
0.0
 10
319.0370760404659
 20
141.1789456997233
 30
0.0
  0
SPLINE
  5
1A9
330
1F
100
AcDbEntity
  8
0
  6
Continuous
 62
     7
370
    15
100
AcDbSpline
210
0.0
220
0.0
230
1.0
 70
     8
 71
     3
 72
    17
 73
    13
 74
     0
 42
0.00000001
 43
0.00000001
 40
4.0
 40
4.0
 40
4.0
 40
4.0
 40
5.0
 40
5.0
 40
5.0
 40
6.0
 40
6.0
 40
6.0
 40
7.0
 40
7.0
 40
7.0
 40
8.0
 40
8.0
 40
8.0
 40
8.0
 10
318.0692278977274
 20
141.5705492780693
 30
0.0
 10
318.0456701721356
 20
141.4424694914831
 30
0.0
 10
318.0453705930263
 20
141.3129684816937
 30
0.0
 10
318.0608851883545
 20
141.1841293189476
 30
0.0
 10
318.0707494941528
 20
141.1022122082132
 30
0.0
 10
318.1130716795875
 20
141.0604273217031
 30
0.0
 10
318.1956995796801
 20
141.0505855317398
 30
0.0
 10
318.2712627217902
 20
141.0415851229774
 30
0.0
 10
318.3477919117241
 20
141.0386509541695
 30
0.0
 10
318.4239703286505
 20
141.0373293931621
 30
0.0
 10
318.5299957363935
 20
141.0354899679506
 30
0.0
 10
318.6361168956872
 20
141.036387046217
 30
0.0
 10
318.7421451475357
 20
141.0386073445523
 30
0.0
  0
SPLINE
  5
1AA
330
1F
100
AcDbEntity
  8
0
  6
Continuous
 62
     7
370
    15
100
AcDbSpline
210
0.0
220
0.0
230
1.0
 70
     8
 71
     3
 72
    14
 73
    10
 74
     0
 42
0.00000001
 43
0.00000001
 40
1.0
 40
1.0
 40
1.0
 40
1.0
 40
2.0
 40
2.0
 40
2.0
 40
3.0
 40
3.0
 40
3.0
 40
4.0
 40
4.0
 40
4.0
 40
4.0
 10
318.5547849596529
 20
141.69709964694
 30
0.0
 10
318.501092040557
 20
141.69709964694
 30
0.0
 10
318.44736214809
 20
141.6983580451052
 30
0.0
 10
318.3937156827166
 20
141.6967743523771
 30
0.0
 10
318.3297716594787
 20
141.6948866958771
 30
0.0
 10
318.2657954030454
 20
141.691892089828
 30
0.0
 10
318.2020229741707
 20
141.6869451238795
 30
0.0
 10
318.1280259861385
 20
141.6812048895142
 30
0.0
 10
318.0825553759507
 20
141.6430071310258
 30
0.0
 10
318.0692278977274
 20
141.5705492780693
 30
0.0
  0
LINE
  5
1AB
330
1F
100
AcDbEntity
  8
0
  6
Continuous
 62
     7
370
    15
100
AcDbLine
 10
318.5548492048
 20
141.7006589722
 30
0.0
 11
318.5547821495
 21
141.6970996902
 31
0.0
  0
LINE
  5
1AC
330
1F
100
AcDbEntity
  8
0
  6
Continuous
 62
     7
370
    15
100
AcDbLine
 10
314.8889623854
 20
139.6305545018
 30
0.0
 11
314.7649251196
 21
139.2455151322
 31
0.0
  0
LINE
  5
1AD
330
1F
100
AcDbEntity
  8
0
  6
Continuous
 62
     7
370
    15
100
AcDbLine
 10
314.7649251196
 20
139.2455151322
 30
0.0
 11
315.0129996512
 21
139.2455151322
 31
0.0
  0
LINE
  5
1AE
330
1F
100
AcDbEntity
  8
0
  6
Continuous
 62
     7
370
    15
100
AcDbLine
 10
315.0129996512
 20
139.2455151322
 30
0.0
 11
314.8889623854
 21
139.6305545018
 31
0.0
  0
SPLINE
  5
1AF
330
1F
100
AcDbEntity
  8
0
  6
Continuous
 62
     7
370
    15
100
AcDbSpline
210
0.0
220
0.0
230
1.0
 70
     8
 71
     3
 72
    23
 73
    19
 74
     0
 42
0.00000001
 43
0.00000001
 40
0.0
 40
0.0
 40
0.0
 40
0.0
 40
0.076081884701931
 40
0.1471819687640825
 40
0.2146364505200138
 40
0.2807490273056368
 40
0.3447419675261378
 40
0.4052773020675559
 40
0.4640682072310934
 40
0.5223965270195926
 40
0.5555358908714524
 40
0.5957247630992423
 40
0.6440164047140025
 40
0.699839632058472
 40
0.7631413591354212
 40
0.8340320168691612
 40
0.913196972690524
 40
0.9999999999999999
 40
0.9999999999999999
 40
0.9999999999999999
 40
0.9999999999999999
 10
314.2685629198291
 20
139.5530046422851
 30
0.0
 10
314.2683480303068
 20
139.5613033773112
 30
0.0
 10
314.2679323221119
 20
139.5773574506844
 30
0.0
 10
314.2628803753456
 20
139.6002857782703
 30
0.0
 10
314.2553386786315
 20
139.6213638015723
 30
0.0
 10
314.2440362965121
 20
139.6398047514436
 30
0.0
 10
314.2310403098338
 20
139.6560363796315
 30
0.0
 10
314.2163625344071
 20
139.6697313281559
 30
0.0
 10
314.1998116135968
 20
139.6799244961407
 30
0.0
 10
314.1847523548702
 20
139.6864752271334
 30
0.0
 10
314.1709241261201
 20
139.6903596107585
 30
0.0
 10
314.1578334753831
 20
139.6924546457001
 30
0.0
 10
314.1422614119863
 20
139.6945120988467
 30
0.0
 10
314.1241307076462
 20
139.696456928078
 30
0.0
 10
314.1034673025015
 20
139.697587147547
 30
0.0
 10
314.0802514439345
 20
139.6983600531262
 30
0.0
 10
314.054470696741
 20
139.6990508986916
 30
0.0
 10
314.0364002237433
 20
139.6991096041399
 30
0.0
 10
314.0269491734172
 20
139.6991403077163
 30
0.0
  0
SPLINE
  5
1B0
330
1F
100
AcDbEntity
  8
0
  6
Continuous
 62
     7
370
    15
100
AcDbSpline
210
0.0
220
0.0
230
1.0
 70
     8
 71
     3
 72
    23
 73
    19
 74
     0
 42
0.00000001
 43
0.00000001
 40
0.0
 40
0.0
 40
0.0
 40
0.0
 40
0.0802677070168434
 40
0.1539260922463887
 40
0.2210061688261451
 40
0.2815490599671161
 40
0.3356108088835963
 40
0.3826149115544756
 40
0.4239877632283632
 40
0.4586154841606045
 40
0.5212552374933963
 40
0.5839932603337752
 40
0.6469098796765174
 40
0.712487341747225
 40
0.7805313367902629
 40
0.8497867786547944
 40
0.9222496394661696
 40
0.9999999999999999
 40
0.9999999999999999
 40
0.9999999999999999
 40
0.9999999999999999
 10
314.0394572189605
 20
139.4056181722996
 30
0.0
 10
314.0478658354223
 20
139.4056545678826
 30
0.0
 10
314.0639906946126
 20
139.4057243622006
 30
0.0
 10
314.0871358558196
 20
139.4063487756526
 30
0.0
 10
314.1081990399326
 20
139.4073595957154
 30
0.0
 10
314.1271792919421
 20
139.4087973726686
 30
0.0
 10
314.144016987314
 20
139.4106067776866
 30
0.0
 10
314.1587636094203
 20
139.4129111284911
 30
0.0
 10
314.1713967693111
 20
139.415495298185
 30
0.0
 10
314.1853463179591
 20
139.419614904559
 30
0.0
 10
314.2006413149267
 20
139.4266737542821
 30
0.0
 10
314.217209391728
 20
139.4375130205208
 30
0.0
 10
314.2320172018581
 20
139.451133579901
 30
0.0
 10
314.2449682474518
 20
139.4672276432647
 30
0.0
 10
314.2556578050607
 20
139.4857247572841
 30
0.0
 10
314.2630933976164
 20
139.5064907407673
 30
0.0
 10
314.2678749334249
 20
139.5290912862792
 30
0.0
 10
314.2683282718623
 20
139.5448486375597
 30
0.0
 10
314.2685629198291
 20
139.5530046422851
 30
0.0
  0
LINE
  5
1B1
330
1F
100
AcDbEntity
  8
0
  6
Continuous
 62
     7
370
    15
100
AcDbLine
 10
313.9350123975
 20
139.4056181557
 30
0.0
 11
314.0394546363
 21
139.4056181557
 31
0.0
  0
LINE
  5
1B2
330
1F
100
AcDbEntity
  8
0
  6
Continuous
 62
     7
370
    15
100
AcDbLine
 10
314.0269525621
 20
139.6991402976
 30
0.0
 11
313.9350123975
 21
139.6991402976
 31
0.0
  0
LINE
  5
1B3
330
1F
100
AcDbEntity
  8
0
  6
Continuous
 62
     7
370
    15
100
AcDbLine
 10
313.9350123975
 20
139.6991402976
 30
0.0
 11
313.9350123975
 21
139.4056181557
 31
0.0
  0
SPLINE
  5
1B4
330
1F
100
AcDbEntity
  8
0
  6
Continuous
 62
     7
370
    15
100
AcDbSpline
210
0.0
220
0.0
230
1.0
 70
     8
 71
     3
 72
    17
 73
    13
 74
     0
 42
0.00000001
 43
0.00000001
 40
5.0
 40
5.0
 40
5.0
 40
5.0
 40
6.0
 40
6.0
 40
6.0
 40
7.0
 40
7.0
 40
7.0
 40
8.0
 40
8.0
 40
8.0
 40
9.0
 40
9.0
 40
9.0
 40
9.0
 10
313.4074427746253
 20
141.613111790416
 30
0.0
 10
313.3978116854753
 20
141.6598153203243
 30
0.0
 10
313.3733514304151
 20
141.6837682580717
 30
0.0
 10
313.3257155079309
 20
141.6875064791963
 30
0.0
 10
313.2703976565775
 20
141.6918474136713
 30
0.0
 10
313.2147020132145
 20
141.6925349761682
 30
0.0
 10
313.1591642177049
 20
141.692710955194
 30
0.0
 10
312.9754653415946
 20
141.6932931672842
 30
0.0
 10
312.7917643324052
 20
141.69294464586
 30
0.0
 10
312.6080640342421
 20
141.6928769798507
 30
0.0
 10
312.6012507425846
 20
141.6928744912584
 30
0.0
 10
312.5944381619535
 20
141.6920756531351
 30
0.0
 10
312.5872226663811
 20
141.6916227293393
 30
0.0
  0
SPLINE
  5
1B5
330
1F
100
AcDbEntity
  8
0
  6
Continuous
 62
     7
370
    15
100
AcDbSpline
210
0.0
220
0.0
230
1.0
 70
     8
 71
     3
 72
     8
 73
     4
 74
     0
 42
0.00000001
 43
0.00000001
 40
4.0
 40
4.0
 40
4.0
 40
4.0
 40
5.0
 40
5.0
 40
5.0
 40
5.0
 10
313.4057841871198
 20
141.4495540396996
 30
0.0
 10
313.418117650482
 20
141.5037387520327
 30
0.0
 10
313.4186698809604
 20
141.5586655388842
 30
0.0
 10
313.4074427746253
 20
141.613111790416
 30
0.0
  0
SPLINE
  5
1B6
330
1F
100
AcDbEntity
  8
0
  6
Continuous
 62
     7
370
    15
100
AcDbSpline
210
0.0
220
0.0
230
1.0
 70
     8
 71
     3
 72
    17
 73
    13
 74
     0
 42
0.00000001
 43
0.00000001
 40
0.0
 40
0.0
 40
0.0
 40
0.0
 40
1.0
 40
1.0
 40
1.0
 40
2.0
 40
2.0
 40
2.0
 40
3.0
 40
3.0
 40
3.0
 40
4.0
 40
4.0
 40
4.0
 40
4.0
 10
312.5872226663811
 20
141.3719131600408
 30
0.0
 10
312.5952911565851
 20
141.3719131600408
 30
0.0
 10
312.6022319589711
 20
141.3719131600408
 30
0.0
 10
312.6091725243483
 20
141.3719131600408
 30
0.0
 10
312.8019282173128
 20
141.3719132785452
 30
0.0
 10
312.9946843842949
 20
141.3716621677333
 30
0.0
 10
313.187439366233
 20
141.3721054926731
 30
0.0
 10
313.2307143269995
 20
141.3722050363645
 30
0.0
 10
313.2740200989086
 20
141.3740392473825
 30
0.0
 10
313.3172457618471
 20
141.3763302928415
 30
0.0
 10
313.3635999408003
 20
141.3787871259483
 30
0.0
 10
313.3955838028587
 20
141.4047384033002
 30
0.0
 10
313.4057841871198
 20
141.4495540396996
 30
0.0
  0
LINE
  5
1B7
330
1F
100
AcDbEntity
  8
0
  6
Continuous
 62
     7
370
    15
100
AcDbLine
 10
312.5872247193
 20
141.6916226986
 30
0.0
 11
312.5872247193
 21
141.3719131629
 31
0.0
  0
ELLIPSE
  5
1B8
330
1F
100
AcDbEntity
  8
0
  6
Continuous
 62
     7
370
    15
100
AcDbEllipse
 10
214.7002504415
 20
145.1033635024
 30
0.0
 11
0.1500000000000057
 21
0.0
 31
0.0
210
0.0
220
0.0
230
1.0
 40
0.0174550649
 41
1.570796326794897
 42
2.443460952792083
  0
LINE
  5
1B9
330
1F
100
AcDbEntity
  8
0
  6
Continuous
 62
     7
370
    15
100
AcDbLine
 10
214.58326401
 20
145.1050401915
 30
0.0
 11
214.5853437697
 21
145.1050467108
 31
0.0
  0
ELLIPSE
  5
1BA
330
1F
100
AcDbEntity
  8
0
  6
Continuous
 62
     7
370
    15
100
AcDbEllipse
 10
214.7002504415
 20
135.5871519615
 30
0.0
 11
0.1499999999999772
 21
0.0
 31
0.0
210
0.0
220
0.0
230
1.0
 40
0.0174550649
 41
3.839724354382534
 42
4.71238898038469
  0
LINE
  5
1BB
330
1F
100
AcDbEntity
  8
0
  6
Continuous
 62
     7
370
    15
100
AcDbLine
 10
214.5853437697
 20
135.5854687531
 30
0.0
 11
214.58326401
 21
135.5854752724
 31
0.0
  0
LINE
  5
1BC
330
1F
100
AcDbEntity
  8
0
  6
Continuous
 62
     7
370
    15
100
AcDbLine
 10
201.5106927875
 20
145.1059817587
 30
0.0
 11
213.6279969864
 21
145.1059817587
 31
0.0
  0
ELLIPSE
  5
1BD
330
1F
100
AcDbEntity
  8
0
  6
Continuous
 62
     7
370
    15
100
AcDbEllipse
 10
213.6279969812
 20
145.1033635024
 30
0.0
 11
0.1500000000000057
 21
0.0
 31
0.0
210
0.0
220
0.0
230
1.0
 40
0.0174550649
 41
0.6981317007977126
 42
1.570796326794897
  0
LINE
  5
1BE
330
1F
100
AcDbEntity
  8
0
  6
Continuous
 62
     7
370
    15
100
AcDbLine
 10
213.7449834127
 20
145.1050401915
 30
0.0
 11
213.742903653
 21
145.1050467108
 31
0.0
  0
CIRCLE
  5
1BF
330
1F
100
AcDbEntity
  8
0
  6
Continuous
 62
     7
370
    15
100
AcDbCircle
 10
102.1641237113
 20
140.345257732
 30
0.0
 40
4.099999999999994
  0
LINE
  5
1C0
330
1F
100
AcDbEntity
  8
0
  6
Continuous
 62
     7
370
    15
100
AcDbLine
 10
213.6279969864
 20
135.5845337052
 30
0.0
 11
201.5106927875
 21
135.5845337052
 31
0.0
  0
ELLIPSE
  5
1C1
330
1F
100
AcDbEntity
  8
0
  6
Continuous
 62
     7
370
    15
100
AcDbEllipse
 10
213.6279969812
 20
135.5871519615
 30
0.0
 11
0.1500000000000057
 21
0.0
 31
0.0
210
0.0
220
0.0
230
1.0
 40
0.0174550649
 41
4.71238898038469
 42
5.585053606387696
  0
LINE
  5
1C2
330
1F
100
AcDbEntity
  8
0
  6
Continuous
 62
     7
370
    15
100
AcDbLine
 10
213.742903653
 20
135.5854687531
 30
0.0
 11
213.7449834127
 21
135.5854752724
 31
0.0
  0
CIRCLE
  5
1C3
330
1F
100
AcDbEntity
  8
0
  6
Continuous
 62
     7
370
    15
100
AcDbCircle
 10
326.1641237113
 20
140.345257732
 30
0.0
 40
4.064469686209407
  0
ARC
  5
1C4
330
1F
100
AcDbEntity
  8
0
  6
Continuous
 62
     7
370
    15
100
AcDbCircle
 10
201.0567379572
 20
135.6854149434
 30
0.0
 40
3.000000000000016
100
AcDbArc
 50
90.0
 51
113.9232772003
  0
SPLINE
  5
1C5
330
1F
100
AcDbEntity
  8
0
  6
Continuous
 62
     7
370
    15
100
AcDbSpline
210
0.0
220
0.0
230
1.0
 70
     8
 71
     3
 72
     8
 73
     4
 74
     0
 42
0.00000001
 43
0.00000001
 40
0.0
 40
0.0
 40
0.0
 40
0.0
 40
1.0
 40
1.0
 40
1.0
 40
1.0
 10
199.8401990123531
 20
138.4276827997057
 30
0.0
 10
199.6119621045311
 20
138.3264311709222
 30
0.0
 10
199.4096212816418
 20
138.1874714665307
 30
0.0
 10
199.2332004990979
 20
138.0107691654862
 30
0.0
  0
LINE
  5
1C6
330
1F
100
AcDbEntity
  8
0
  6
Continuous
 62
     7
370
    15
100
AcDbLine
 10
98.2766233656
 20
145.1059817587
 30
0.0
 11
200.81755503
 21
145.1059817587
 31
0.0
  0
LINE
  5
1C7
330
1F
100
AcDbEntity
  8
0
  6
Continuous
 62
     7
370
    15
100
AcDbLine
 10
200.81755503
 20
135.5845337052
 30
0.0
 11
98.2766233656
 21
135.5845337052
 31
0.0
  0
SPLINE
  5
1C8
330
1F
100
AcDbEntity
  8
0
  6
Continuous
 62
     7
370
    15
100
AcDbSpline
210
0.0
220
0.0
230
1.0
 70
     8
 71
     3
 72
     8
 73
     4
 74
     0
 42
0.00000001
 43
0.00000001
 40
0.0
 40
0.0
 40
0.0
 40
0.0
 40
1.0
 40
1.0
 40
1.0
 40
1.0
 10
199.2332004990979
 20
142.6797462984312
 30
0.0
 10
199.4096212816418
 20
142.5030439973867
 30
0.0
 10
199.6119621045311
 20
142.3640842929953
 30
0.0
 10
199.8401990123531
 20
142.2628326642118
 30
0.0
  0
ARC
  5
1C9
330
1F
100
AcDbEntity
  8
0
  6
Continuous
 62
     7
370
    15
100
AcDbCircle
 10
201.0567379572
 20
145.0051005205
 30
0.0
 40
3.0
100
AcDbArc
 50
246.0767227997
 51
270.0
  0
SPLINE
  5
1CA
330
1F
100
AcDbEntity
  8
0
  6
Continuous
 62
     7
370
    15
100
AcDbSpline
210
0.0
220
0.0
230
1.0
 70
     8
 71
     3
 72
     8
 73
     4
 74
     0
 42
0.00000001
 43
0.00000001
 40
7.0
 40
7.0
 40
7.0
 40
7.0
 40
8.0
 40
8.0
 40
8.0
 40
8.0
 10
315.7040740566644
 20
141.6159306544481
 30
0.0
 10
315.6943514821219
 20
141.6550531027268
 30
0.0
 10
315.667730654941
 20
141.6803626787825
 30
0.0
 10
315.6263953741038
 20
141.6841677363856
 30
0.0
  0
SPLINE
  5
1CB
330
1F
100
AcDbEntity
  8
0
  6
Continuous
 62
     7
370
    15
100
AcDbSpline
210
0.0
220
0.0
230
1.0
 70
     8
 71
     3
 72
    11
 73
     7
 74
     0
 42
0.00000001
 43
0.00000001
 40
5.0
 40
5.0
 40
5.0
 40
5.0
 40
6.0
 40
6.0
 40
6.0
 40
7.0
 40
7.0
 40
7.0
 40
7.0
 10
315.6328116760396
 20
141.3688051452862
 30
0.0
 10
315.6691166823392
 20
141.3758251086077
 30
0.0
 10
315.6954929164497
 20
141.3988562006703
 30
0.0
 10
315.7040181225902
 20
141.4352658463501
 30
0.0
 10
315.7180338743367
 20
141.4951243120832
 30
0.0
 10
315.7189454101392
 20
141.5560922159577
 30
0.0
 10
315.7040740566644
 20
141.6159306544481
 30
0.0
  0
SPLINE
  5
1CC
330
1F
100
AcDbEntity
  8
0
  6
Continuous
 62
     7
370
    15
100
AcDbSpline
210
0.0
220
0.0
230
1.0
 70
     8
 71
     3
 72
    14
 73
    10
 74
     0
 42
0.00000001
 43
0.00000001
 40
2.0
 40
2.0
 40
2.0
 40
2.0
 40
3.0
 40
3.0
 40
3.0
 40
4.0
 40
4.0
 40
4.0
 40
5.0
 40
5.0
 40
5.0
 40
5.0
 10
314.9426027390032
 20
141.3810293475966
 30
0.0
 10
314.9423974893919
 20
141.3620153174989
 30
0.0
 10
314.9492546276754
 20
141.3590006842071
 30
0.0
 10
314.9659409944563
 20
141.3590421607452
 30
0.0
 10
315.1574834394299
 20
141.3595181928979
 30
0.0
 10
315.3490296765441
 20
141.3589543489888
 30
0.0
 10
315.540570699465
 20
141.3597424032123
 30
0.0
 10
315.5713666734729
 20
141.35986908441
 30
0.0
 10
315.6025854711605
 20
141.3629607455582
 30
0.0
 10
315.6328116760396
 20
141.3688051452862
 30
0.0
  0
SPLINE
  5
1CD
330
1F
100
AcDbEntity
  8
0
  6
Continuous
 62
     7
370
    15
100
AcDbSpline
210
0.0
220
0.0
230
1.0
 70
     8
 71
     3
 72
    11
 73
     7
 74
     0
 42
0.00000001
 43
0.00000001
 40
0.0
 40
0.0
 40
0.0
 40
0.0
 40
1.0
 40
1.0
 40
1.0
 40
2.0
 40
2.0
 40
2.0
 40
2.0
 10
314.9430805487218
 20
141.6929324399073
 30
0.0
 10
314.9430805487218
 20
141.6830310422335
 30
0.0
 10
314.9430805487218
 20
141.6766562168357
 30
0.0
 10
314.9430805487218
 20
141.6702813914379
 30
0.0
 10
314.9430810227394
 20
141.5738623054264
 30
0.0
 10
314.9436417855342
 20
141.4774371756907
 30
0.0
 10
314.9426027390032
 20
141.3810293475966
 30
0.0
  0
SPLINE
  5
1CE
330
1F
100
AcDbEntity
  8
0
  6
Continuous
 62
     7
370
    15
100
AcDbSpline
210
0.0
220
0.0
230
1.0
 70
     8
 71
     3
 72
    14
 73
    10
 74
     0
 42
0.00000001
 43
0.00000001
 40
8.0
 40
8.0
 40
8.0
 40
8.0
 40
9.0
 40
9.0
 40
9.0
 40
10.0
 40
10.0
 40
10.0
 40
11.0
 40
11.0
 40
11.0
 40
11.0
 10
315.6263953741038
 20
141.6841677363856
 30
0.0
 10
315.5788315022914
 20
141.6885458812405
 30
0.0
 10
315.531023985444
 20
141.6922742665003
 30
0.0
 10
315.4833003697079
 20
141.6925473006252
 30
0.0
 10
315.3118221407761
 20
141.6935282800029
 30
0.0
 10
315.140335379528
 20
141.6929323214029
 30
0.0
 10
314.9688514623853
 20
141.6929323214029
 30
0.0
 10
314.9612226234848
 20
141.6929323214029
 30
0.0
 10
314.9535937845844
 20
141.6929324399073
 30
0.0
 10
314.9430805487218
 20
141.6929324399073
 30
0.0
  0
SPLINE
  5
1CF
330
1F
100
AcDbEntity
  8
0
  6
Continuous
 62
     7
370
    15
100
AcDbSpline
210
0.0
220
0.0
230
1.0
 70
     8
 71
     3
 72
     8
 73
     4
 74
     0
 42
0.00000001
 43
0.00000001
 40
0.0
 40
0.0
 40
0.0
 40
0.0
 40
1.0
 40
1.0
 40
1.0
 40
1.0
 10
184.0950469235823
 20
138.0107691654862
 30
0.0
 10
183.9186261410385
 20
138.1874714665306
 30
0.0
 10
183.7162853181493
 20
138.3264311709221
 30
0.0
 10
183.4880484103274
 20
138.4276827997055
 30
0.0
  0
SPLINE
  5
1D0
330
1F
100
AcDbEntity
  8
0
  6
Continuous
 62
     7
370
    15
100
AcDbSpline
210
0.0
220
0.0
230
1.0
 70
     8
 71
     3
 72
     8
 73
     4
 74
     0
 42
0.00000001
 43
0.00000001
 40
0.0
 40
0.0
 40
0.0
 40
0.0
 40
1.0
 40
1.0
 40
1.0
 40
1.0
 10
183.4880484103274
 20
142.2628326642119
 30
0.0
 10
183.7162853181493
 20
142.3640842929954
 30
0.0
 10
183.9186261410385
 20
142.5030439973868
 30
0.0
 10
184.0950469235823
 20
142.6797462984313
 30
0.0
  0
ARC
  5
1D1
330
1F
100
AcDbEntity
  8
0
  6
Continuous
 62
     7
370
    15
100
AcDbCircle
 10
182.2715094655
 20
135.6854149434
 30
0.0
 40
3.0
100
AcDbArc
 50
66.0767227997
 51
90.0
  0
ARC
  5
1D2
330
1F
100
AcDbEntity
  8
0
  6
Continuous
 62
     7
370
    15
100
AcDbCircle
 10
182.2715094655
 20
145.0051005205
 30
0.0
 40
3.000000000000001
100
AcDbArc
 50
270.0
 51
293.9232772003
  0
ARC
  5
1D3
330
1F
100
AcDbEntity
  8
0
  6
Continuous
 62
     7
370
    15
100
AcDbCircle
 10
174.5567379572
 20
135.6854149434
 30
0.0
 40
3.000000000000001
100
AcDbArc
 50
90.0
 51
113.9232772003
  0
SPLINE
  5
1D4
330
1F
100
AcDbEntity
  8
0
  6
Continuous
 62
     7
370
    15
100
AcDbSpline
210
0.0
220
0.0
230
1.0
 70
     8
 71
     3
 72
     8
 73
     4
 74
     0
 42
0.00000001
 43
0.00000001
 40
0.0
 40
0.0
 40
0.0
 40
0.0
 40
1.0
 40
1.0
 40
1.0
 40
1.0
 10
173.340199012353
 20
138.4276827997057
 30
0.0
 10
173.111962104531
 20
138.3264311709222
 30
0.0
 10
172.9096212816418
 20
138.1874714665307
 30
0.0
 10
172.7332004990979
 20
138.0107691654862
 30
0.0
  0
ARC
  5
1D5
330
1F
100
AcDbEntity
  8
0
  6
Continuous
 62
     7
370
    15
100
AcDbCircle
 10
174.5567379572
 20
145.0051005205
 30
0.0
 40
3.000000000000016
100
AcDbArc
 50
246.0767227997
 51
270.0
  0
SPLINE
  5
1D6
330
1F
100
AcDbEntity
  8
0
  6
Continuous
 62
     7
370
    15
100
AcDbSpline
210
0.0
220
0.0
230
1.0
 70
     8
 71
     3
 72
     8
 73
     4
 74
     0
 42
0.00000001
 43
0.00000001
 40
0.0
 40
0.0
 40
0.0
 40
0.0
 40
1.0
 40
1.0
 40
1.0
 40
1.0
 10
172.7332004990979
 20
142.6797462984312
 30
0.0
 10
172.9096212816419
 20
142.5030439973867
 30
0.0
 10
173.1119621045311
 20
142.3640842929953
 30
0.0
 10
173.3401990123531
 20
142.2628326642118
 30
0.0
  0
SPLINE
  5
1D7
330
1F
100
AcDbEntity
  8
0
  6
Continuous
 62
     7
370
    15
100
AcDbSpline
210
0.0
220
0.0
230
1.0
 70
     8
 71
     3
 72
     8
 73
     4
 74
     0
 42
0.00000001
 43
0.00000001
 40
0.0
 40
0.0
 40
0.0
 40
0.0
 40
1.0
 40
1.0
 40
1.0
 40
1.0
 10
157.5950469235823
 20
138.0107691654862
 30
0.0
 10
157.4186261410384
 20
138.1874714665307
 30
0.0
 10
157.2162853181492
 20
138.3264311709221
 30
0.0
 10
156.9880484103273
 20
138.4276827997056
 30
0.0
  0
ARC
  5
1D8
330
1F
100
AcDbEntity
  8
0
  6
Continuous
 62
     7
370
    15
100
AcDbCircle
 10
155.7715094655
 20
135.6854149434
 30
0.0
 40
3.0
100
AcDbArc
 50
66.0767227997
 51
90.0
  0
SPLINE
  5
1D9
330
1F
100
AcDbEntity
  8
0
  6
Continuous
 62
     7
370
    15
100
AcDbSpline
210
0.0
220
0.0
230
1.0
 70
     8
 71
     3
 72
     8
 73
     4
 74
     0
 42
0.00000001
 43
0.00000001
 40
0.0
 40
0.0
 40
0.0
 40
0.0
 40
1.0
 40
1.0
 40
1.0
 40
1.0
 10
156.9880484103273
 20
142.2628326642118
 30
0.0
 10
157.2162853181492
 20
142.3640842929953
 30
0.0
 10
157.4186261410384
 20
142.5030439973868
 30
0.0
 10
157.5950469235823
 20
142.6797462984313
 30
0.0
  0
ARC
  5
1DA
330
1F
100
AcDbEntity
  8
0
  6
Continuous
 62
     7
370
    15
100
AcDbCircle
 10
155.7715094655
 20
145.0051005205
 30
0.0
 40
3.0
100
AcDbArc
 50
270.0
 51
293.9232772003
  0
SPLINE
  5
1DB
330
1F
100
AcDbEntity
  8
0
  6
Continuous
 62
     7
370
    15
100
AcDbSpline
210
0.0
220
0.0
230
1.0
 70
     8
 71
     3
 72
     8
 73
     4
 74
     0
 42
0.00000001
 43
0.00000001
 40
0.0
 40
0.0
 40
0.0
 40
0.0
 40
1.0
 40
1.0
 40
1.0
 40
1.0
 10
146.2332004990979
 20
142.6797462984313
 30
0.0
 10
146.4096212816418
 20
142.5030439973868
 30
0.0
 10
146.611962104531
 20
142.3640842929953
 30
0.0
 10
146.840199012353
 20
142.2628326642118
 30
0.0
  0
ARC
  5
1DC
330
1F
100
AcDbEntity
  8
0
  6
Continuous
 62
     7
370
    15
100
AcDbCircle
 10
148.0567379572
 20
145.0051005205
 30
0.0
 40
3.0
100
AcDbArc
 50
246.0767227997
 51
270.0
  0
ARC
  5
1DD
330
1F
100
AcDbEntity
  8
0
  6
Continuous
 62
     7
370
    15
100
AcDbCircle
 10
148.0567379572
 20
135.6854149434
 30
0.0
 40
3.0
100
AcDbArc
 50
90.0
 51
113.9232772003
  0
SPLINE
  5
1DE
330
1F
100
AcDbEntity
  8
0
  6
Continuous
 62
     7
370
    15
100
AcDbSpline
210
0.0
220
0.0
230
1.0
 70
     8
 71
     3
 72
     8
 73
     4
 74
     0
 42
0.00000001
 43
0.00000001
 40
0.0
 40
0.0
 40
0.0
 40
0.0
 40
1.0
 40
1.0
 40
1.0
 40
1.0
 10
146.840199012353
 20
138.4276827997056
 30
0.0
 10
146.611962104531
 20
138.3264311709221
 30
0.0
 10
146.4096212816418
 20
138.1874714665307
 30
0.0
 10
146.2332004990979
 20
138.0107691654862
 30
0.0
  0
ARC
  5
1DF
330
1F
100
AcDbEntity
  8
0
  6
Continuous
 62
     7
370
    15
100
AcDbCircle
 10
129.2715094655
 20
145.0051005205
 30
0.0
 40
3.000000000000007
100
AcDbArc
 50
270.0
 51
293.9232772003
  0
SPLINE
  5
1E0
330
1F
100
AcDbEntity
  8
0
  6
Continuous
 62
     7
370
    15
100
AcDbSpline
210
0.0
220
0.0
230
1.0
 70
     8
 71
     3
 72
     8
 73
     4
 74
     0
 42
0.00000001
 43
0.00000001
 40
0.0
 40
0.0
 40
0.0
 40
0.0
 40
1.0
 40
1.0
 40
1.0
 40
1.0
 10
130.4880484103273
 20
142.2628326642118
 30
0.0
 10
130.7162853181492
 20
142.3640842929953
 30
0.0
 10
130.9186261410385
 20
142.5030439973868
 30
0.0
 10
131.0950469235824
 20
142.6797462984313
 30
0.0
  0
SPLINE
  5
1E1
330
1F
100
AcDbEntity
  8
0
  6
Continuous
 62
     7
370
    15
100
AcDbSpline
210
0.0
220
0.0
230
1.0
 70
     8
 71
     3
 72
     8
 73
     4
 74
     0
 42
0.00000001
 43
0.00000001
 40
0.0
 40
0.0
 40
0.0
 40
0.0
 40
1.0
 40
1.0
 40
1.0
 40
1.0
 10
131.0950469235823
 20
138.0107691654862
 30
0.0
 10
130.9186261410384
 20
138.1874714665307
 30
0.0
 10
130.7162853181492
 20
138.3264311709221
 30
0.0
 10
130.4880484103273
 20
138.4276827997056
 30
0.0
  0
ARC
  5
1E2
330
1F
100
AcDbEntity
  8
0
  6
Continuous
 62
     7
370
    15
100
AcDbCircle
 10
129.2715094655
 20
135.6854149434
 30
0.0
 40
3.000000000000007
100
AcDbArc
 50
66.0767227997
 51
90.0
  0
ARC
  5
1E3
330
1F
100
AcDbEntity
  8
0
  6
Continuous
 62
     7
370
    15
100
AcDbCircle
 10
121.5567379572
 20
145.0051005205
 30
0.0
 40
3.000000000000001
100
AcDbArc
 50
246.0767227997
 51
270.0
  0
SPLINE
  5
1E4
330
1F
100
AcDbEntity
  8
0
  6
Continuous
 62
     7
370
    15
100
AcDbSpline
210
0.0
220
0.0
230
1.0
 70
     8
 71
     3
 72
     8
 73
     4
 74
     0
 42
0.00000001
 43
0.00000001
 40
0.0
 40
0.0
 40
0.0
 40
0.0
 40
1.0
 40
1.0
 40
1.0
 40
1.0
 10
119.7332004990979
 20
142.6797462984313
 30
0.0
 10
119.9096212816418
 20
142.5030439973868
 30
0.0
 10
120.111962104531
 20
142.3640842929953
 30
0.0
 10
120.340199012353
 20
142.2628326642118
 30
0.0
  0
ARC
  5
1E5
330
1F
100
AcDbEntity
  8
0
  6
Continuous
 62
     7
370
    15
100
AcDbCircle
 10
121.5567379572
 20
135.6854149434
 30
0.0
 40
3.0
100
AcDbArc
 50
90.0
 51
113.9232772003
  0
SPLINE
  5
1E6
330
1F
100
AcDbEntity
  8
0
  6
Continuous
 62
     7
370
    15
100
AcDbSpline
210
0.0
220
0.0
230
1.0
 70
     8
 71
     3
 72
     8
 73
     4
 74
     0
 42
0.00000001
 43
0.00000001
 40
0.0
 40
0.0
 40
0.0
 40
0.0
 40
1.0
 40
1.0
 40
1.0
 40
1.0
 10
120.3401990123529
 20
138.4276827997056
 30
0.0
 10
120.111962104531
 20
138.3264311709221
 30
0.0
 10
119.9096212816418
 20
138.1874714665306
 30
0.0
 10
119.7332004990979
 20
138.0107691654862
 30
0.0
  0
ARC
  5
1E7
330
1F
100
AcDbEntity
  8
0
  6
Continuous
 62
     7
370
    15
100
AcDbCircle
 10
98.2766237113
 20
140.345257732
 30
0.0
 40
4.760724030218455
100
AcDbArc
 50
90.0
 51
270.0
  0
LINE
  5
1E8
330
1F
100
AcDbEntity
  8
0
  6
Continuous
 62
     7
370
    15
100
AcDbLine
 10
207.6815840129
 20
142.0051005221
 30
0.0
 11
207.6815840129
 21
138.6854149419
 31
0.0
  0
CIRCLE
  5
1E9
330
1F
100
AcDbEntity
  8
0
  6
Continuous
 62
     7
370
    15
100
AcDbCircle
 10
102.1641237113
 20
140.345257732
 30
0.0
 40
4.064469686209421
  0
LINE
  5
1EA
330
1F
100
AcDbEntity
  8
0
  6
Continuous
 62
     7
370
    15
100
AcDbLine
 10
214.4301594972
 20
145.1018550683
 30
0.0
 11
214.432239257
 21
145.1018615876
 31
0.0
  0
LINE
  5
1EB
330
1F
100
AcDbEntity
  8
0
  6
Continuous
 62
     7
370
    15
100
AcDbLine
 10
213.8960081657
 20
135.5886538763
 30
0.0
 11
213.8980879254
 21
135.5886603956
 31
0.0
  0
LINE
  5
1EC
330
1F
100
AcDbEntity
  8
0
  6
Continuous
 62
     7
370
    15
100
AcDbLine
 10
214.432239257
 20
135.5886538763
 30
0.0
 11
214.4301594972
 21
135.5886603956
 31
0.0
  0
LINE
  5
1ED
330
1F
100
AcDbEntity
  8
0
  6
Continuous
 62
     7
370
    15
100
AcDbLine
 10
213.8980879254
 20
145.1018550683
 30
0.0
 11
213.8960081657
 21
145.1018615876
 31
0.0
  0
CIRCLE
  5
1EE
330
1F
100
AcDbEntity
  8
0
  6
Continuous
 62
     7
370
    15
100
AcDbCircle
 10
214.1641237113
 20
140.345257732
 30
0.0
 40
4.064469686209435
  0
ELLIPSE
  5
1EF
330
1F
100
AcDbEntity
  8
0
  6
Continuous
 62
     7
370
    15
100
AcDbEllipse
 10
214.1641237113
 20
145.1057885513
 30
0.0
 11
0.3499999999999943
 21
0.0
 31
0.0
210
0.0
220
0.0
230
1.0
 40
0.0174550649
 41
3.839724354391227
 42
5.585053606379185
  0
ELLIPSE
  5
1F0
330
1F
100
AcDbEntity
  8
0
  6
Continuous
 62
     7
370
    15
100
AcDbEllipse
 10
214.1641237113
 20
135.5847269126
 30
0.0
 11
0.3499999999999943
 21
0.0
 31
0.0
210
0.0
220
0.0
230
1.0
 40
0.0174550649
 41
0.6981317007972945
 42
2.443460952792398
  0
ARC
  5
1F1
330
1F
100
AcDbEntity
  8
0
  6
Continuous
 62
     7
370
    15
100
AcDbCircle
 10
174.5567379572
 20
145.0051005205
 30
0.0
 40
3.000000000000016
100
AcDbArc
 50
242.3555678987
 51
246.0767227997
  0
SPLINE
  5
1F2
330
1F
100
AcDbEntity
  8
0
  6
Continuous
 62
     7
370
    15
100
AcDbSpline
210
0.0
220
0.0
230
1.0
 70
     8
 71
     3
 72
     8
 73
     4
 74
     0
 42
0.00000001
 43
0.00000001
 40
0.0
 40
0.0
 40
0.0
 40
0.0
 40
1.0
 40
1.0
 40
1.0
 40
1.0
 10
173.1647885533157
 20
142.3475684215409
 30
0.0
 10
172.9311484871692
 20
142.4699432936697
 30
0.0
 10
172.7494041001187
 20
142.6113062441665
 30
0.0
 10
172.5893617504158
 20
142.7592478602357
 30
0.0
  0
ARC
  5
1F3
330
1F
100
AcDbEntity
  8
0
  6
Continuous
 62
     7
370
    15
100
AcDbCircle
 10
201.0567379572
 20
145.0051005205
 30
0.0
 40
3.000000000000007
100
AcDbArc
 50
242.3555678987
 51
246.0767227997
  0
SPLINE
  5
1F4
330
1F
100
AcDbEntity
  8
0
  6
Continuous
 62
     7
370
    15
100
AcDbSpline
210
0.0
220
0.0
230
1.0
 70
     8
 71
     3
 72
     8
 73
     4
 74
     0
 42
0.00000001
 43
0.00000001
 40
0.0
 40
0.0
 40
0.0
 40
0.0
 40
1.0
 40
1.0
 40
1.0
 40
1.0
 10
199.6647885533157
 20
142.3475684215409
 30
0.0
 10
199.431148487169
 20
142.4699432936698
 30
0.0
 10
199.2494041001187
 20
142.6113062441665
 30
0.0
 10
199.0893617504158
 20
142.7592478602357
 30
0.0
  0
SPLINE
  5
1F5
330
1F
100
AcDbEntity
  8
0
  6
Continuous
 62
     7
370
    15
100
AcDbSpline
210
0.0
220
0.0
230
1.0
 70
     8
 71
     3
 72
     8
 73
     4
 74
     0
 42
0.00000001
 43
0.00000001
 40
0.0
 40
0.0
 40
0.0
 40
0.0
 40
1.0
 40
1.0
 40
1.0
 40
1.0
 10
199.0893617504154
 20
137.9312676036813
 30
0.0
 10
199.2490346047035
 20
138.0788676617262
 30
0.0
 10
199.4323167586096
 20
138.2211840818538
 30
0.0
 10
199.6647885533156
 20
138.3429470423766
 30
0.0
  0
ARC
  5
1F6
330
1F
100
AcDbEntity
  8
0
  6
Continuous
 62
     7
370
    15
100
AcDbCircle
 10
201.0567379572
 20
135.6854149434
 30
0.0
 40
3.000000000000032
100
AcDbArc
 50
113.9232772003
 51
117.6444321013
  0
SPLINE
  5
1F7
330
1F
100
AcDbEntity
  8
0
  6
Continuous
 62
     7
370
    15
100
AcDbSpline
210
0.0
220
0.0
230
1.0
 70
     8
 71
     3
 72
     8
 73
     4
 74
     0
 42
0.00000001
 43
0.00000001
 40
0.0
 40
0.0
 40
0.0
 40
0.0
 40
1.0
 40
1.0
 40
1.0
 40
1.0
 10
172.5893617504154
 20
137.9312676036813
 30
0.0
 10
172.7490346047035
 20
138.0788676617261
 30
0.0
 10
172.9323167586097
 20
138.2211840818538
 30
0.0
 10
173.1647885533156
 20
138.3429470423766
 30
0.0
  0
ARC
  5
1F8
330
1F
100
AcDbEntity
  8
0
  6
Continuous
 62
     7
370
    15
100
AcDbCircle
 10
174.5567379572
 20
135.6854149434
 30
0.0
 40
3.00000000000002
100
AcDbArc
 50
113.9232772003
 51
117.6444321013
  0
SPLINE
  5
1F9
330
1F
100
AcDbEntity
  8
0
  6
Continuous
 62
     7
370
    15
100
AcDbSpline
210
0.0
220
0.0
230
1.0
 70
     8
 71
     3
 72
     8
 73
     4
 74
     0
 42
0.00000001
 43
0.00000001
 40
0.0
 40
0.0
 40
0.0
 40
0.0
 40
1.0
 40
1.0
 40
1.0
 40
1.0
 10
146.0893617504154
 20
137.9312676036813
 30
0.0
 10
146.2490346047035
 20
138.0788676617261
 30
0.0
 10
146.4323167586096
 20
138.2211840818538
 30
0.0
 10
146.6647885533156
 20
138.3429470423765
 30
0.0
  0
ARC
  5
1FA
330
1F
100
AcDbEntity
  8
0
  6
Continuous
 62
     7
370
    15
100
AcDbCircle
 10
148.0567379572
 20
135.6854149434
 30
0.0
 40
3.000000000000009
100
AcDbArc
 50
113.9232772003
 51
117.6444321013
  0
SPLINE
  5
1FB
330
1F
100
AcDbEntity
  8
0
  6
Continuous
 62
     7
370
    15
100
AcDbSpline
210
0.0
220
0.0
230
1.0
 70
     8
 71
     3
 72
     8
 73
     4
 74
     0
 42
0.00000001
 43
0.00000001
 40
0.0
 40
0.0
 40
0.0
 40
0.0
 40
1.0
 40
1.0
 40
1.0
 40
1.0
 10
157.7388856722649
 20
142.7592478602362
 30
0.0
 10
157.5792128179768
 20
142.6116478021914
 30
0.0
 10
157.3959306640708
 20
142.4693313820637
 30
0.0
 10
157.1634588693648
 20
142.347568421541
 30
0.0
  0
ARC
  5
1FC
330
1F
100
AcDbEntity
  8
0
  6
Continuous
 62
     7
370
    15
100
AcDbCircle
 10
155.7715094655
 20
145.0051005205
 30
0.0
 40
2.999999999999998
100
AcDbArc
 50
293.9232772003
 51
297.6444321013
  0
ARC
  5
1FD
330
1F
100
AcDbEntity
  8
0
  6
Continuous
 62
     7
370
    15
100
AcDbCircle
 10
155.7715094655
 20
135.6854149434
 30
0.0
 40
2.999999999999998
100
AcDbArc
 50
62.3555678987
 51
66.0767227997
  0
SPLINE
  5
1FE
330
1F
100
AcDbEntity
  8
0
  6
Continuous
 62
     7
370
    15
100
AcDbSpline
210
0.0
220
0.0
230
1.0
 70
     8
 71
     3
 72
     8
 73
     4
 74
     0
 42
0.00000001
 43
0.00000001
 40
0.0
 40
0.0
 40
0.0
 40
0.0
 40
1.0
 40
1.0
 40
1.0
 40
1.0
 10
157.1634588693648
 20
138.3429470423764
 30
0.0
 10
157.3970989355114
 20
138.2205721702475
 30
0.0
 10
157.5788433225616
 20
138.0792092197509
 30
0.0
 10
157.7388856722646
 20
137.9312676036816
 30
0.0
  0
ARC
  5
1FF
330
1F
100
AcDbEntity
  8
0
  6
Continuous
 62
     7
370
    15
100
AcDbCircle
 10
148.0567379572
 20
145.0051005205
 30
0.0
 40
2.999999999999995
100
AcDbArc
 50
242.3555678987
 51
246.0767227997
  0
SPLINE
  5
200
330
1F
100
AcDbEntity
  8
0
  6
Continuous
 62
     7
370
    15
100
AcDbSpline
210
0.0
220
0.0
230
1.0
 70
     8
 71
     3
 72
     8
 73
     4
 74
     0
 42
0.00000001
 43
0.00000001
 40
0.0
 40
0.0
 40
0.0
 40
0.0
 40
1.0
 40
1.0
 40
1.0
 40
1.0
 10
146.6647885533155
 20
142.347568421541
 30
0.0
 10
146.4311484871689
 20
142.4699432936699
 30
0.0
 10
146.2494041001186
 20
142.6113062441665
 30
0.0
 10
146.0893617504157
 20
142.7592478602358
 30
0.0
  0
SPLINE
  5
201
330
1F
100
AcDbEntity
  8
0
  6
Continuous
 62
     7
370
    15
100
AcDbSpline
210
0.0
220
0.0
230
1.0
 70
     8
 71
     3
 72
     8
 73
     4
 74
     0
 42
0.00000001
 43
0.00000001
 40
0.0
 40
0.0
 40
0.0
 40
0.0
 40
1.0
 40
1.0
 40
1.0
 40
1.0
 10
119.5893617504153
 20
137.9312676036812
 30
0.0
 10
119.7490346047034
 20
138.078867661726
 30
0.0
 10
119.9323167586094
 20
138.2211840818537
 30
0.0
 10
120.1647885533154
 20
138.3429470423764
 30
0.0
  0
ARC
  5
202
330
1F
100
AcDbEntity
  8
0
  6
Continuous
 62
     7
370
    15
100
AcDbCircle
 10
121.5567379572
 20
135.6854149434
 30
0.0
 40
2.999999999999994
100
AcDbArc
 50
113.9232772003
 51
117.6444321013
  0
ARC
  5
203
330
1F
100
AcDbEntity
  8
0
  6
Continuous
 62
     7
370
    15
100
AcDbCircle
 10
121.5567379572
 20
145.0051005205
 30
0.0
 40
3.000000000000001
100
AcDbArc
 50
242.3555678987
 51
246.0767227997
  0
SPLINE
  5
204
330
1F
100
AcDbEntity
  8
0
  6
Continuous
 62
     7
370
    15
100
AcDbSpline
210
0.0
220
0.0
230
1.0
 70
     8
 71
     3
 72
     8
 73
     4
 74
     0
 42
0.00000001
 43
0.00000001
 40
0.0
 40
0.0
 40
0.0
 40
0.0
 40
1.0
 40
1.0
 40
1.0
 40
1.0
 10
120.1647885533155
 20
142.347568421541
 30
0.0
 10
119.931148487169
 20
142.4699432936699
 30
0.0
 10
119.7494041001186
 20
142.6113062441666
 30
0.0
 10
119.5893617504157
 20
142.7592478602358
 30
0.0
  0
SPLINE
  5
205
330
1F
100
AcDbEntity
  8
0
  6
Continuous
 62
     7
370
    15
100
AcDbSpline
210
0.0
220
0.0
230
1.0
 70
     8
 71
     3
 72
     8
 73
     4
 74
     0
 42
0.00000001
 43
0.00000001
 40
0.0
 40
0.0
 40
0.0
 40
0.0
 40
1.0
 40
1.0
 40
1.0
 40
1.0
 10
131.2388856722649
 20
142.7592478602362
 30
0.0
 10
131.0792128179768
 20
142.6116478021914
 30
0.0
 10
130.8959306640708
 20
142.4693313820638
 30
0.0
 10
130.6634588693647
 20
142.347568421541
 30
0.0
  0
ARC
  5
206
330
1F
100
AcDbEntity
  8
0
  6
Continuous
 62
     7
370
    15
100
AcDbCircle
 10
129.2715094655
 20
145.0051005205
 30
0.0
 40
3.000000000000007
100
AcDbArc
 50
293.9232772003
 51
297.6444321013
  0
ARC
  5
207
330
1F
100
AcDbEntity
  8
0
  6
Continuous
 62
     7
370
    15
100
AcDbCircle
 10
129.2715094655
 20
135.6854149434
 30
0.0
 40
3.000000000000024
100
AcDbArc
 50
62.3555678987
 51
66.0767227997
  0
SPLINE
  5
208
330
1F
100
AcDbEntity
  8
0
  6
Continuous
 62
     7
370
    15
100
AcDbSpline
210
0.0
220
0.0
230
1.0
 70
     8
 71
     3
 72
     8
 73
     4
 74
     0
 42
0.00000001
 43
0.00000001
 40
0.0
 40
0.0
 40
0.0
 40
0.0
 40
1.0
 40
1.0
 40
1.0
 40
1.0
 10
130.6634588693648
 20
138.3429470423765
 30
0.0
 10
130.8970989355116
 20
138.2205721702474
 30
0.0
 10
131.0788433225615
 20
138.079209219751
 30
0.0
 10
131.2388856722646
 20
137.9312676036816
 30
0.0
  0
SPLINE
  5
209
330
1F
100
AcDbEntity
  8
0
  6
Continuous
 62
     7
370
    15
100
AcDbSpline
210
0.0
220
0.0
230
1.0
 70
     8
 71
     3
 72
     8
 73
     4
 74
     0
 42
0.00000001
 43
0.00000001
 40
0.0
 40
0.0
 40
0.0
 40
0.0
 40
1.0
 40
1.0
 40
1.0
 40
1.0
 10
184.238885672265
 20
142.7592478602363
 30
0.0
 10
184.079212817977
 20
142.6116478021915
 30
0.0
 10
183.8959306640709
 20
142.4693313820638
 30
0.0
 10
183.663458869365
 20
142.3475684215412
 30
0.0
  0
ARC
  5
20A
330
1F
100
AcDbEntity
  8
0
  6
Continuous
 62
     7
370
    15
100
AcDbCircle
 10
182.2715094655
 20
145.0051005205
 30
0.0
 40
3.000000000000001
100
AcDbArc
 50
293.9232772003
 51
297.6444321013
  0
ARC
  5
20B
330
1F
100
AcDbEntity
  8
0
  6
Continuous
 62
     7
370
    15
100
AcDbCircle
 10
182.2715094655
 20
135.6854149434
 30
0.0
 40
3.000000000000003
100
AcDbArc
 50
62.3555678987
 51
66.0767227997
  0
SPLINE
  5
20C
330
1F
100
AcDbEntity
  8
0
  6
Continuous
 62
     7
370
    15
100
AcDbSpline
210
0.0
220
0.0
230
1.0
 70
     8
 71
     3
 72
     8
 73
     4
 74
     0
 42
0.00000001
 43
0.00000001
 40
0.0
 40
0.0
 40
0.0
 40
0.0
 40
1.0
 40
1.0
 40
1.0
 40
1.0
 10
183.663458869365
 20
138.3429470423763
 30
0.0
 10
183.8970989355117
 20
138.2205721702473
 30
0.0
 10
184.0788433225616
 20
138.0792092197509
 30
0.0
 10
184.2388856722646
 20
137.9312676036816
 30
0.0
  0
SPLINE
  5
20D
330
1F
100
AcDbEntity
  8
0
  6
Continuous
 62
     7
370
    15
100
AcDbSpline
210
0.0
220
0.0
230
1.0
 70
     8
 71
     3
 72
    10
 73
     6
 74
     0
 42
0.00000001
 43
0.00000001
 40
0.0
 40
0.0
 40
0.0
 40
0.0
 40
0.5
 40
0.5
 40
1.0
 40
1.0
 40
1.0
 40
1.0
 10
108.1624478722756
 20
143.6378855313146
 30
0.0
 10
108.0186835725334
 20
143.6332699889637
 30
0.0
 10
107.8860187283938
 20
143.5649670641927
 30
0.0
 10
107.713417686823
 20
143.3765380145001
 30
0.0
 10
107.6696733569395
 20
143.2589166761977
 30
0.0
 10
107.6667777255645
 20
143.1441730531251
 30
0.0
  0
SPLINE
  5
20E
330
1F
100
AcDbEntity
  8
0
  6
Continuous
 62
     7
370
    15
100
AcDbSpline
210
0.0
220
0.0
230
1.0
 70
     8
 71
     3
 72
     8
 73
     4
 74
     0
 42
0.00000001
 43
0.00000001
 40
0.0
 40
0.0
 40
0.0
 40
0.0
 40
0.0000159424959231
 40
0.0000159424959231
 40
0.0000159424959231
 40
0.0000159424959231
 10
108.1783879990849
 20
143.6381412858035
 30
0.0
 10
108.1730738337771
 20
143.6381412858035
 30
0.0
 10
108.167758877859
 20
143.6380560407612
 30
0.0
 10
108.1624478722756
 20
143.6378855313146
 30
0.0
  0
SPLINE
  5
20F
330
1F
100
AcDbEntity
  8
0
  6
Continuous
 62
     7
370
    15
100
AcDbSpline
210
0.0
220
0.0
230
1.0
 70
     8
 71
     3
 72
     8
 73
     4
 74
     0
 42
0.00000001
 43
0.00000001
 40
0.0
 40
0.0
 40
0.0
 40
0.0
 40
0.0000159424959231
 40
0.0000159424959231
 40
0.0000159424959231
 40
0.0000159424959231
 10
108.1624478722756
 20
137.0526299326028
 30
0.0
 10
108.167758877859
 20
137.0524594231562
 30
0.0
 10
108.1730738337771
 20
137.052374178114
 30
0.0
 10
108.1783879990849
 20
137.052374178114
 30
0.0
  0
SPLINE
  5
210
330
1F
100
AcDbEntity
  8
0
  6
Continuous
 62
     7
370
    15
100
AcDbSpline
210
0.0
220
0.0
230
1.0
 70
     8
 71
     3
 72
    10
 73
     6
 74
     0
 42
0.00000001
 43
0.00000001
 40
0.0
 40
0.0
 40
0.0
 40
0.0
 40
0.4999999999999997
 40
0.4999999999999997
 40
1.0
 40
1.0
 40
1.0
 40
1.0
 10
108.1624478722756
 20
137.0526299326028
 30
0.0
 10
108.0186835725334
 20
137.0572454749537
 30
0.0
 10
107.8860187283938
 20
137.1255483997247
 30
0.0
 10
107.7134176868229
 20
137.3139774494173
 30
0.0
 10
107.669673356938
 20
137.4315987876888
 30
0.0
 10
107.6667777255645
 20
137.5463424107922
 30
0.0
  0
ELLIPSE
  5
211
330
1F
100
AcDbEntity
  8
0
  6
Continuous
 62
     7
370
    15
100
AcDbEllipse
 10
200.6960628453
 20
139.6482656076
 30
0.0
 11
2.502286835415674
 21
2.499237256909737
 31
0.0
210
0.0
220
0.0
230
0.9999999999999998
 40
0.024677657
 41
3.351638157789631
 42
3.602627709410062
  0
ELLIPSE
  5
212
330
1F
100
AcDbEntity
  8
0
  6
Continuous
 62
     7
370
    15
100
AcDbEllipse
 10
200.6960628453
 20
141.0422498563
 30
0.0
 11
2.502286835415561
 21
-2.49923725690968
 31
0.0
210
0.0
220
0.0
230
1.0
 40
0.024677657
 41
2.680557597770367
 42
2.931547149390951
  0
LINE
  5
213
330
1F
100
AcDbEntity
  8
0
  6
Continuous
 62
     7
370
    15
100
AcDbLine
 10
197.8938844747
 20
137.0523741781
 30
0.0
 11
197.8939922467
 21
137.0523741839
 31
0.0
  0
SPLINE
  5
214
330
1F
100
AcDbEntity
  8
0
  6
Continuous
 62
     7
370
    15
100
AcDbSpline
210
0.0
220
0.0
230
1.0
 70
     8
 71
     3
 72
     8
 73
     4
 74
     0
 42
0.00000001
 43
0.00000001
 40
0.0
 40
0.0
 40
0.0
 40
0.0
 40
1.0
 40
1.0
 40
1.0
 40
1.0
 10
197.8939922337315
 20
137.0523741839138
 30
0.0
 10
198.0135606883744
 20
137.0523870535369
 30
0.0
 10
198.1297741652642
 20
137.0955846230774
 30
0.0
 10
198.22025074805
 20
137.1735120893531
 30
0.0
  0
SPLINE
  5
215
330
1F
100
AcDbEntity
  8
0
  6
Continuous
 62
     7
370
    15
100
AcDbSpline
210
0.0
220
0.0
230
1.0
 70
     8
 71
     3
 72
     8
 73
     4
 74
     0
 42
0.00000001
 43
0.00000001
 40
0.0
 40
0.0
 40
0.0
 40
0.0
 40
1.0
 40
1.0
 40
1.0
 40
1.0
 10
197.8938778714221
 20
143.6381376760523
 30
0.0
 10
198.0122864222949
 20
143.6378198615919
 30
0.0
 10
198.1278514386561
 20
143.5949455060489
 30
0.0
 10
198.2180503768728
 20
143.5173182673048
 30
0.0
  0
SPLINE
  5
216
330
1F
100
AcDbEntity
  8
0
  6
Continuous
 62
     7
370
    15
100
AcDbSpline
210
0.0
220
0.0
230
1.0
 70
     8
 71
     3
 72
     8
 73
     4
 74
     0
 42
0.00000001
 43
0.00000001
 40
0.0
 40
0.0
 40
0.0
 40
0.0
 40
1.0
 40
1.0
 40
1.0
 40
1.0
 10
198.2180503768728
 20
143.5173182673048
 30
0.0
 10
198.2181722640373
 20
143.5172133684644
 30
0.0
 10
198.2182941091478
 20
143.5171084033135
 30
0.0
 10
198.2184159121853
 20
143.5170033718246
 30
0.0
  0
ELLIPSE
  5
217
330
1F
100
AcDbEntity
  8
0
  6
Continuous
 62
     7
370
    15
100
AcDbEllipse
 10
182.6321845774
 20
139.6482656076
 30
0.0
 11
2.50228683541539
 21
-2.49923725690951
 31
0.0
210
0.0
220
0.0
230
1.0
 40
0.024677657
 41
5.822150251360429
 42
6.073139802981287
  0
LINE
  5
218
330
1F
100
AcDbEntity
  8
0
  6
Continuous
 62
     7
370
    15
100
AcDbLine
 10
185.4342551759
 20
137.0523741839
 30
0.0
 11
185.434362948
 21
137.0523741781
 31
0.0
  0
SPLINE
  5
219
330
1F
100
AcDbEntity
  8
0
  6
Continuous
 62
     7
370
    15
100
AcDbSpline
210
0.0
220
0.0
230
1.0
 70
     8
 71
     3
 72
     8
 73
     4
 74
     0
 42
0.00000001
 43
0.00000001
 40
0.0
 40
0.0
 40
0.0
 40
0.0
 40
1.0
 40
1.0
 40
1.0
 40
1.0
 10
185.1079966746302
 20
137.1735120893531
 30
0.0
 10
185.1976679736639
 20
137.0962782138442
 30
0.0
 10
185.3147401510738
 20
137.0523870477874
 30
0.0
 10
185.4342551889487
 20
137.0523741839138
 30
0.0
  0
SPLINE
  5
21A
330
1F
100
AcDbEntity
  8
0
  6
Continuous
 62
     7
370
    15
100
AcDbSpline
210
0.0
220
0.0
230
1.0
 70
     8
 71
     3
 72
     8
 73
     4
 74
     0
 42
0.00000001
 43
0.00000001
 40
0.0
 40
0.0
 40
0.0
 40
0.0
 40
1.0
 40
1.0
 40
1.0
 40
1.0
 10
185.1101970458132
 20
143.5173182673099
 30
0.0
 10
185.1995641818284
 20
143.5942296383334
 30
0.0
 10
185.3160475869117
 20
143.6378200939945
 30
0.0
 10
185.4343695512581
 20
143.6381376760523
 30
0.0
  0
SPLINE
  5
21B
330
1F
100
AcDbEntity
  8
0
  6
Continuous
 62
     7
370
    15
100
AcDbSpline
210
0.0
220
0.0
230
1.0
 70
     8
 71
     3
 72
     8
 73
     4
 74
     0
 42
0.00000001
 43
0.00000001
 40
0.0
 40
0.0
 40
0.0
 40
0.0
 40
1.0
 40
1.0
 40
1.0
 40
1.0
 10
185.1098315100776
 20
143.5170033714649
 30
0.0
 10
185.1099533118681
 20
143.5171084018787
 30
0.0
 10
185.1100751571187
 20
143.5172133671528
 30
0.0
 10
185.1101970458132
 20
143.5173182673099
 30
0.0
  0
ELLIPSE
  5
21C
330
1F
100
AcDbEntity
  8
0
  6
Continuous
 62
     7
370
    15
100
AcDbEllipse
 10
182.6321845774
 20
141.0422498563
 30
0.0
 11
2.502286835415561
 21
2.499237256909652
 31
0.0
210
0.0
220
0.0
230
1.0
 40
0.024677657
 41
0.2100455041991083
 42
0.4610350558199172
  0
LINE
  5
21D
330
1F
100
AcDbEntity
  8
0
  6
Continuous
 62
     7
370
    15
100
AcDbLine
 10
171.3938844747
 20
137.0523741781
 30
0.0
 11
171.3939922467
 21
137.0523741839
 31
0.0
  0
SPLINE
  5
21E
330
1F
100
AcDbEntity
  8
0
  6
Continuous
 62
     7
370
    15
100
AcDbSpline
210
0.0
220
0.0
230
1.0
 70
     8
 71
     3
 72
     8
 73
     4
 74
     0
 42
0.00000001
 43
0.00000001
 40
0.0
 40
0.0
 40
0.0
 40
0.0
 40
1.0
 40
1.0
 40
1.0
 40
1.0
 10
171.3939922337315
 20
137.0523741839138
 30
0.0
 10
171.5135606883744
 20
137.0523870535369
 30
0.0
 10
171.6297741652641
 20
137.0955846230774
 30
0.0
 10
171.72025074805
 20
137.1735120893531
 30
0.0
  0
ELLIPSE
  5
21F
330
1F
100
AcDbEntity
  8
0
  6
Continuous
 62
     7
370
    15
100
AcDbEllipse
 10
174.1960628453
 20
139.6482656076
 30
0.0
 11
2.502286835415646
 21
2.499237256909737
 31
0.0
210
0.0
220
0.0
230
1.0
 40
0.024677657
 41
3.351638157789182
 42
3.60262770940967
  0
ELLIPSE
  5
220
330
1F
100
AcDbEntity
  8
0
  6
Continuous
 62
     7
370
    15
100
AcDbEllipse
 10
174.1960628453
 20
141.0422498563
 30
0.0
 11
2.502286835415561
 21
-2.49923725690968
 31
0.0
210
0.0
220
0.0
230
1.0
 40
0.024677657
 41
2.680557597770367
 42
2.931547149390727
  0
SPLINE
  5
221
330
1F
100
AcDbEntity
  8
0
  6
Continuous
 62
     7
370
    15
100
AcDbSpline
210
0.0
220
0.0
230
1.0
 70
     8
 71
     3
 72
     8
 73
     4
 74
     0
 42
0.00000001
 43
0.00000001
 40
0.0
 40
0.0
 40
0.0
 40
0.0
 40
1.0
 40
1.0
 40
1.0
 40
1.0
 10
171.3938778714221
 20
143.6381376760523
 30
0.0
 10
171.5122864222955
 20
143.637819861592
 30
0.0
 10
171.6278514386567
 20
143.5949455060488
 30
0.0
 10
171.7180503768734
 20
143.5173182673046
 30
0.0
  0
SPLINE
  5
222
330
1F
100
AcDbEntity
  8
0
  6
Continuous
 62
     7
370
    15
100
AcDbSpline
210
0.0
220
0.0
230
1.0
 70
     8
 71
     3
 72
     8
 73
     4
 74
     0
 42
0.00000001
 43
0.00000001
 40
0.0
 40
0.0
 40
0.0
 40
0.0
 40
1.0
 40
1.0
 40
1.0
 40
1.0
 10
171.7180503768734
 20
143.5173182673046
 30
0.0
 10
171.7181722640379
 20
143.5172133684643
 30
0.0
 10
171.7182941091483
 20
143.5171084033134
 30
0.0
 10
171.7184159121858
 20
143.5170033718246
 30
0.0
  0
LINE
  5
223
330
1F
100
AcDbEntity
  8
0
  6
Continuous
 62
     7
370
    15
100
AcDbLine
 10
158.9342551759
 20
137.0523741839
 30
0.0
 11
158.934362948
 21
137.0523741781
 31
0.0
  0
SPLINE
  5
224
330
1F
100
AcDbEntity
  8
0
  6
Continuous
 62
     7
370
    15
100
AcDbSpline
210
0.0
220
0.0
230
1.0
 70
     8
 71
     3
 72
     8
 73
     4
 74
     0
 42
0.00000001
 43
0.00000001
 40
0.0
 40
0.0
 40
0.0
 40
0.0
 40
1.0
 40
1.0
 40
1.0
 40
1.0
 10
158.6079966746302
 20
137.1735120893531
 30
0.0
 10
158.697667973664
 20
137.0962782138442
 30
0.0
 10
158.8147401510738
 20
137.0523870477874
 30
0.0
 10
158.9342551889488
 20
137.0523741839138
 30
0.0
  0
ELLIPSE
  5
225
330
1F
100
AcDbEntity
  8
0
  6
Continuous
 62
     7
370
    15
100
AcDbEllipse
 10
156.1321845774
 20
139.6482656076
 30
0.0
 11
2.502286835415418
 21
-2.49923725690951
 31
0.0
210
0.0
220
0.0
230
1.0
 40
0.024677657
 41
5.822150251360657
 42
6.07313980298132
  0
ELLIPSE
  5
226
330
1F
100
AcDbEntity
  8
0
  6
Continuous
 62
     7
370
    15
100
AcDbEllipse
 10
156.1321845774
 20
141.0422498563
 30
0.0
 11
2.502286835415561
 21
2.499237256909652
 31
0.0
210
0.0
220
0.0
230
1.0
 40
0.024677657
 41
0.2100455041991083
 42
0.4610350558194998
  0
SPLINE
  5
227
330
1F
100
AcDbEntity
  8
0
  6
Continuous
 62
     7
370
    15
100
AcDbSpline
210
0.0
220
0.0
230
1.0
 70
     8
 71
     3
 72
     8
 73
     4
 74
     0
 42
0.00000001
 43
0.00000001
 40
0.0
 40
0.0
 40
0.0
 40
0.0
 40
1.0
 40
1.0
 40
1.0
 40
1.0
 10
158.6101970458131
 20
143.5173182673099
 30
0.0
 10
158.6995641818284
 20
143.5942296383334
 30
0.0
 10
158.8160475869115
 20
143.6378200939945
 30
0.0
 10
158.934369551258
 20
143.6381376760523
 30
0.0
  0
SPLINE
  5
228
330
1F
100
AcDbEntity
  8
0
  6
Continuous
 62
     7
370
    15
100
AcDbSpline
210
0.0
220
0.0
230
1.0
 70
     8
 71
     3
 72
     8
 73
     4
 74
     0
 42
0.00000001
 43
0.00000001
 40
0.0
 40
0.0
 40
0.0
 40
0.0
 40
1.0
 40
1.0
 40
1.0
 40
1.0
 10
158.6098315100776
 20
143.517003371465
 30
0.0
 10
158.609953311868
 20
143.5171084018787
 30
0.0
 10
158.6100751571186
 20
143.5172133671528
 30
0.0
 10
158.6101970458131
 20
143.5173182673099
 30
0.0
  0
ELLIPSE
  5
229
330
1F
100
AcDbEntity
  8
0
  6
Continuous
 62
     7
370
    15
100
AcDbEllipse
 10
147.6960628453
 20
141.0422498563
 30
0.0
 11
2.502286835415589
 21
-2.49923725690968
 31
0.0
210
0.0
220
0.0
230
1.0
 40
0.024677657
 41
2.680557597770086
 42
2.93154714939068
  0
SPLINE
  5
22A
330
1F
100
AcDbEntity
  8
0
  6
Continuous
 62
     7
370
    15
100
AcDbSpline
210
0.0
220
0.0
230
1.0
 70
     8
 71
     3
 72
     8
 73
     4
 74
     0
 42
0.00000001
 43
0.00000001
 40
0.0
 40
0.0
 40
0.0
 40
0.0
 40
1.0
 40
1.0
 40
1.0
 40
1.0
 10
144.8938778714221
 20
143.6381376760523
 30
0.0
 10
145.0122864222945
 20
143.6378198615918
 30
0.0
 10
145.1278514386557
 20
143.594945506049
 30
0.0
 10
145.2180503768724
 20
143.5173182673049
 30
0.0
  0
SPLINE
  5
22B
330
1F
100
AcDbEntity
  8
0
  6
Continuous
 62
     7
370
    15
100
AcDbSpline
210
0.0
220
0.0
230
1.0
 70
     8
 71
     3
 72
     8
 73
     4
 74
     0
 42
0.00000001
 43
0.00000001
 40
0.0
 40
0.0
 40
0.0
 40
0.0
 40
1.0
 40
1.0
 40
1.0
 40
1.0
 10
145.2180503768723
 20
143.5173182673049
 30
0.0
 10
145.2181722640369
 20
143.5172133684645
 30
0.0
 10
145.2182941091474
 20
143.5171084033135
 30
0.0
 10
145.218415912185
 20
143.5170033718246
 30
0.0
  0
ELLIPSE
  5
22C
330
1F
100
AcDbEntity
  8
0
  6
Continuous
 62
     7
370
    15
100
AcDbEllipse
 10
147.6960628453
 20
139.6482656076
 30
0.0
 11
2.502286835415561
 21
2.499237256909652
 31
0.0
210
0.0
220
0.0
230
1.0
 40
0.024677657
 41
3.351638157789399
 42
3.602627709409656
  0
LINE
  5
22D
330
1F
100
AcDbEntity
  8
0
  6
Continuous
 62
     7
370
    15
100
AcDbLine
 10
144.8938844747
 20
137.0523741781
 30
0.0
 11
144.8939922467
 21
137.0523741839
 31
0.0
  0
SPLINE
  5
22E
330
1F
100
AcDbEntity
  8
0
  6
Continuous
 62
     7
370
    15
100
AcDbSpline
210
0.0
220
0.0
230
1.0
 70
     8
 71
     3
 72
     8
 73
     4
 74
     0
 42
0.00000001
 43
0.00000001
 40
0.0
 40
0.0
 40
0.0
 40
0.0
 40
1.0
 40
1.0
 40
1.0
 40
1.0
 10
144.8939922337315
 20
137.0523741839138
 30
0.0
 10
145.0135606883744
 20
137.0523870535369
 30
0.0
 10
145.1297741652642
 20
137.0955846230774
 30
0.0
 10
145.22025074805
 20
137.1735120893531
 30
0.0
  0
SPLINE
  5
22F
330
1F
100
AcDbEntity
  8
0
  6
Continuous
 62
     7
370
    15
100
AcDbSpline
210
0.0
220
0.0
230
1.0
 70
     8
 71
     3
 72
     8
 73
     4
 74
     0
 42
0.00000001
 43
0.00000001
 40
0.0
 40
0.0
 40
0.0
 40
0.0
 40
1.0
 40
1.0
 40
1.0
 40
1.0
 10
132.4342551889488
 20
137.0523741839138
 30
0.0
 10
132.3146867343059
 20
137.0523870535369
 30
0.0
 10
132.1984732574161
 20
137.0955846230774
 30
0.0
 10
132.1079966746302
 20
137.1735120893531
 30
0.0
  0
LINE
  5
230
330
1F
100
AcDbEntity
  8
0
  6
Continuous
 62
     7
370
    15
100
AcDbLine
 10
132.4342551759
 20
137.0523741839
 30
0.0
 11
132.434362948
 21
137.0523741781
 31
0.0
  0
ELLIPSE
  5
231
330
1F
100
AcDbEntity
  8
0
  6
Continuous
 62
     7
370
    15
100
AcDbEllipse
 10
129.6321845774
 20
139.6482656076
 30
0.0
 11
2.502286835415418
 21
-2.49923725690951
 31
0.0
210
0.0
220
0.0
230
1.0
 40
0.024677657
 41
5.822150251360456
 42
6.073139802980839
  0
SPLINE
  5
232
330
1F
100
AcDbEntity
  8
0
  6
Continuous
 62
     7
370
    15
100
AcDbSpline
210
0.0
220
0.0
230
1.0
 70
     8
 71
     3
 72
     8
 73
     4
 74
     0
 42
0.00000001
 43
0.00000001
 40
0.0
 40
0.0
 40
0.0
 40
0.0
 40
1.0
 40
1.0
 40
1.0
 40
1.0
 10
132.1101970458139
 20
143.5173182673101
 30
0.0
 10
132.199564181829
 20
143.5942296383335
 30
0.0
 10
132.3160475869123
 20
143.6378200939944
 30
0.0
 10
132.434369551258
 20
143.6381376760523
 30
0.0
  0
SPLINE
  5
233
330
1F
100
AcDbEntity
  8
0
  6
Continuous
 62
     7
370
    15
100
AcDbSpline
210
0.0
220
0.0
230
1.0
 70
     8
 71
     3
 72
     8
 73
     4
 74
     0
 42
0.00000001
 43
0.00000001
 40
0.0
 40
0.0
 40
0.0
 40
0.0
 40
1.0
 40
1.0
 40
1.0
 40
1.0
 10
132.1098315100781
 20
143.5170033714649
 30
0.0
 10
132.1099533118686
 20
143.5171084018787
 30
0.0
 10
132.1100751571193
 20
143.5172133671529
 30
0.0
 10
132.1101970458139
 20
143.5173182673101
 30
0.0
  0
ELLIPSE
  5
234
330
1F
100
AcDbEntity
  8
0
  6
Continuous
 62
     7
370
    15
100
AcDbEllipse
 10
129.6321845774
 20
141.0422498563
 30
0.0
 11
2.502286835415589
 21
2.499237256909652
 31
0.0
210
0.0
220
0.0
230
1.0
 40
0.024677657
 41
0.2100455041992814
 42
0.4610350558198025
  0
ELLIPSE
  5
235
330
1F
100
AcDbEntity
  8
0
  6
Continuous
 62
     7
370
    15
100
AcDbEllipse
 10
121.1960628453
 20
141.0422498563
 30
0.0
 11
2.502286835415575
 21
-2.49923725690968
 31
0.0
210
0.0
220
0.0
230
1.0
 40
0.024677657
 41
2.680557597770164
 42
2.931547149390727
  0
SPLINE
  5
236
330
1F
100
AcDbEntity
  8
0
  6
Continuous
 62
     7
370
    15
100
AcDbSpline
210
0.0
220
0.0
230
1.0
 70
     8
 71
     3
 72
     8
 73
     4
 74
     0
 42
0.00000001
 43
0.00000001
 40
0.0
 40
0.0
 40
0.0
 40
0.0
 40
1.0
 40
1.0
 40
1.0
 40
1.0
 10
118.7180503768724
 20
143.5173182673049
 30
0.0
 10
118.7181722640369
 20
143.5172133684645
 30
0.0
 10
118.7182941091474
 20
143.5171084033135
 30
0.0
 10
118.718415912185
 20
143.5170033718246
 30
0.0
  0
SPLINE
  5
237
330
1F
100
AcDbEntity
  8
0
  6
Continuous
 62
     7
370
    15
100
AcDbSpline
210
0.0
220
0.0
230
1.0
 70
     8
 71
     3
 72
     8
 73
     4
 74
     0
 42
0.00000001
 43
0.00000001
 40
0.0
 40
0.0
 40
0.0
 40
0.0
 40
1.0
 40
1.0
 40
1.0
 40
1.0
 10
118.3938778714221
 20
143.6381376760523
 30
0.0
 10
118.5122864222945
 20
143.6378198615918
 30
0.0
 10
118.6278514386557
 20
143.5949455060489
 30
0.0
 10
118.7180503768724
 20
143.5173182673049
 30
0.0
  0
ELLIPSE
  5
238
330
1F
100
AcDbEntity
  8
0
  6
Continuous
 62
     7
370
    15
100
AcDbEllipse
 10
121.1960628453
 20
139.6482656076
 30
0.0
 11
2.502286835415646
 21
2.499237256909737
 31
0.0
210
0.0
220
0.0
230
0.9999999999999998
 40
0.024677657
 41
3.351638157789309
 42
3.602627709409715
  0
LINE
  5
239
330
1F
100
AcDbEntity
  8
0
  6
Continuous
 62
     7
370
    15
100
AcDbLine
 10
118.3938844747
 20
137.0523741781
 30
0.0
 11
118.3939922467
 21
137.0523741839
 31
0.0
  0
SPLINE
  5
23A
330
1F
100
AcDbEntity
  8
0
  6
Continuous
 62
     7
370
    15
100
AcDbSpline
210
0.0
220
0.0
230
1.0
 70
     8
 71
     3
 72
     8
 73
     4
 74
     0
 42
0.00000001
 43
0.00000001
 40
0.0
 40
0.0
 40
0.0
 40
0.0
 40
1.0
 40
1.0
 40
1.0
 40
1.0
 10
118.72025074805
 20
137.1735120893531
 30
0.0
 10
118.6305794490163
 20
137.0962782138442
 30
0.0
 10
118.5135072716064
 20
137.0523870477874
 30
0.0
 10
118.3939922337315
 20
137.0523741839138
 30
0.0
  0
LINE
  5
23B
330
1F
100
AcDbEntity
  8
0
  6
Continuous
 62
     7
370
    15
100
AcDbLine
 10
185.434362692
 20
137.0523742185
 30
0.0
 11
185.4889065299
 21
137.0523742185
 31
0.0
  0
LINE
  5
23C
330
1F
100
AcDbEntity
  8
0
  6
Continuous
 62
     7
370
    15
100
AcDbLine
 10
197.8393409673
 20
137.0523742185
 30
0.0
 11
185.4889065299
 21
137.0523742185
 31
0.0
  0
LINE
  5
23D
330
1F
100
AcDbEntity
  8
0
  6
Continuous
 62
     7
370
    15
100
AcDbLine
 10
197.8938848052
 20
137.0523742185
 30
0.0
 11
197.8393409673
 21
137.0523742185
 31
0.0
  0
SPLINE
  5
23E
330
1F
100
AcDbEntity
  8
0
  6
Continuous
 62
     7
370
    15
100
AcDbSpline
210
0.0
220
0.0
230
1.0
 70
     8
 71
     3
 72
     8
 73
     4
 74
     0
 42
0.00000001
 43
0.00000001
 40
0.0
 40
0.0
 40
0.0
 40
0.0
 40
0.0000026962299437
 40
0.0000026962299437
 40
0.0000026962299437
 40
0.0000026962299437
 10
197.8911895865409
 20
143.6381412858035
 30
0.0
 10
197.8920883298555
 20
143.6381412858035
 30
0.0
 10
197.8929895718102
 20
143.6381400602928
 30
0.0
 10
197.8938778714221
 20
143.6381376760523
 30
0.0
  0
LINE
  5
23F
330
1F
100
AcDbEntity
  8
0
  6
Continuous
 62
     7
370
    15
100
AcDbLine
 10
197.8911895577
 20
143.6381412455
 30
0.0
 11
197.8393409673
 21
143.6381412455
 31
0.0
  0
LINE
  5
240
330
1F
100
AcDbEntity
  8
0
  6
Continuous
 62
     7
370
    15
100
AcDbLine
 10
185.4889065299
 20
143.6381412455
 30
0.0
 11
197.8393409673
 21
143.6381412455
 31
0.0
  0
LINE
  5
241
330
1F
100
AcDbEntity
  8
0
  6
Continuous
 62
     7
370
    15
100
AcDbLine
 10
185.4370579395
 20
143.6381412455
 30
0.0
 11
185.4889065299
 21
143.6381412455
 31
0.0
  0
SPLINE
  5
242
330
1F
100
AcDbEntity
  8
0
  6
Continuous
 62
     7
370
    15
100
AcDbSpline
210
0.0
220
0.0
230
1.0
 70
     8
 71
     3
 72
     8
 73
     4
 74
     0
 42
0.00000001
 43
0.00000001
 40
0.0
 40
0.0
 40
0.0
 40
0.0
 40
0.0000026962299434
 40
0.0000026962299434
 40
0.0000026962299434
 40
0.0000026962299434
 10
185.4343695512581
 20
143.6381376760523
 30
0.0
 10
185.43525785087
 20
143.6381400602928
 30
0.0
 10
185.4361590928245
 20
143.6381412858035
 30
0.0
 10
185.437057836139
 20
143.6381412858035
 30
0.0
  0
LINE
  5
243
330
1F
100
AcDbEntity
  8
0
  6
Continuous
 62
     7
370
    15
100
AcDbLine
 10
158.9343630049
 20
137.0523742185
 30
0.0
 11
158.9889049802
 21
137.0523742185
 31
0.0
  0
LINE
  5
244
330
1F
100
AcDbEntity
  8
0
  6
Continuous
 62
     7
370
    15
100
AcDbLine
 10
171.3393412802
 20
137.0523742185
 30
0.0
 11
158.9889049802
 21
137.0523742185
 31
0.0
  0
LINE
  5
245
330
1F
100
AcDbEntity
  8
0
  6
Continuous
 62
     7
370
    15
100
AcDbLine
 10
171.3938832555
 20
137.0523742185
 30
0.0
 11
171.3393412802
 21
137.0523742185
 31
0.0
  0
SPLINE
  5
246
330
1F
100
AcDbEntity
  8
0
  6
Continuous
 62
     7
370
    15
100
AcDbSpline
210
0.0
220
0.0
230
1.0
 70
     8
 71
     3
 72
     8
 73
     4
 74
     0
 42
0.00000001
 43
0.00000001
 40
0.0
 40
0.0
 40
0.0
 40
0.0
 40
0.000002696229942
 40
0.000002696229942
 40
0.000002696229942
 40
0.000002696229942
 10
171.3911895865427
 20
143.6381412858035
 30
0.0
 10
171.3920883298567
 20
143.6381412858035
 30
0.0
 10
171.3929895718108
 20
143.6381400602928
 30
0.0
 10
171.3938778714221
 20
143.6381376760523
 30
0.0
  0
LINE
  5
247
330
1F
100
AcDbEntity
  8
0
  6
Continuous
 62
     7
370
    15
100
AcDbLine
 10
171.3911898706
 20
143.6381412455
 30
0.0
 11
171.3393412802
 21
143.6381412455
 31
0.0
  0
LINE
  5
248
330
1F
100
AcDbEntity
  8
0
  6
Continuous
 62
     7
370
    15
100
AcDbLine
 10
158.9889049802
 20
143.6381412455
 30
0.0
 11
171.3393412802
 21
143.6381412455
 31
0.0
  0
LINE
  5
249
330
1F
100
AcDbEntity
  8
0
  6
Continuous
 62
     7
370
    15
100
AcDbLine
 10
158.9370563898
 20
143.6381412455
 30
0.0
 11
158.9889049802
 21
143.6381412455
 31
0.0
  0
SPLINE
  5
24A
330
1F
100
AcDbEntity
  8
0
  6
Continuous
 62
     7
370
    15
100
AcDbSpline
210
0.0
220
0.0
230
1.0
 70
     8
 71
     3
 72
     8
 73
     4
 74
     0
 42
0.00000001
 43
0.00000001
 40
0.0
 40
0.0
 40
0.0
 40
0.0
 40
0.0000026962299433
 40
0.0000026962299433
 40
0.0000026962299433
 40
0.0000026962299433
 10
158.9343695512581
 20
143.6381376760523
 30
0.0
 10
158.93525785087
 20
143.6381400602928
 30
0.0
 10
158.9361590928245
 20
143.6381412858035
 30
0.0
 10
158.9370578361389
 20
143.6381412858035
 30
0.0
  0
LINE
  5
24B
330
1F
100
AcDbEntity
  8
0
  6
Continuous
 62
     7
370
    15
100
AcDbLine
 10
132.4343614552
 20
137.0523742185
 30
0.0
 11
132.4889071557
 21
137.0523742185
 31
0.0
  0
LINE
  5
24C
330
1F
100
AcDbEntity
  8
0
  6
Continuous
 62
     7
370
    15
100
AcDbLine
 10
144.8393397305
 20
137.0523742185
 30
0.0
 11
132.4889071557
 21
137.0523742185
 31
0.0
  0
LINE
  5
24D
330
1F
100
AcDbEntity
  8
0
  6
Continuous
 62
     7
370
    15
100
AcDbLine
 10
144.893885431
 20
137.0523742185
 30
0.0
 11
144.8393397305
 21
137.0523742185
 31
0.0
  0
SPLINE
  5
24E
330
1F
100
AcDbEntity
  8
0
  6
Continuous
 62
     7
370
    15
100
AcDbSpline
210
0.0
220
0.0
230
1.0
 70
     8
 71
     3
 72
     8
 73
     4
 74
     0
 42
0.00000001
 43
0.00000001
 40
0.0
 40
0.0
 40
0.0
 40
0.0
 40
0.0000026962299442
 40
0.0000026962299442
 40
0.0000026962299442
 40
0.0000026962299442
 10
144.8911895865405
 20
143.6381412858035
 30
0.0
 10
144.8920883298552
 20
143.6381412858035
 30
0.0
 10
144.89298957181
 20
143.6381400602928
 30
0.0
 10
144.8938778714221
 20
143.6381376760523
 30
0.0
  0
LINE
  5
24F
330
1F
100
AcDbEntity
  8
0
  6
Continuous
 62
     7
370
    15
100
AcDbLine
 10
144.8911883209
 20
143.6381412455
 30
0.0
 11
144.8393397305
 21
143.6381412455
 31
0.0
  0
LINE
  5
250
330
1F
100
AcDbEntity
  8
0
  6
Continuous
 62
     7
370
    15
100
AcDbLine
 10
132.4889071557
 20
143.6381412455
 30
0.0
 11
144.8393397305
 21
143.6381412455
 31
0.0
  0
LINE
  5
251
330
1F
100
AcDbEntity
  8
0
  6
Continuous
 62
     7
370
    15
100
AcDbLine
 10
132.4370585654
 20
143.6381412455
 30
0.0
 11
132.4889071557
 21
143.6381412455
 31
0.0
  0
SPLINE
  5
252
330
1F
100
AcDbEntity
  8
0
  6
Continuous
 62
     7
370
    15
100
AcDbSpline
210
0.0
220
0.0
230
1.0
 70
     8
 71
     3
 72
     8
 73
     4
 74
     0
 42
0.00000001
 43
0.00000001
 40
0.0
 40
0.0
 40
0.0
 40
0.0
 40
0.0000026962299442
 40
0.0000026962299442
 40
0.0000026962299442
 40
0.0000026962299442
 10
132.4343695512582
 20
143.6381376760523
 30
0.0
 10
132.4352578508702
 20
143.6381400602928
 30
0.0
 10
132.436159092825
 20
143.6381412858035
 30
0.0
 10
132.4370578361397
 20
143.6381412858035
 30
0.0
  0
LINE
  5
253
330
1F
100
AcDbEntity
  8
0
  6
Continuous
 62
     7
370
    15
100
AcDbLine
 10
118.3938838813
 20
137.0523742185
 30
0.0
 11
118.3393381808
 21
137.0523742185
 31
0.0
  0
LINE
  5
254
330
1F
100
AcDbEntity
  8
0
  6
Continuous
 62
     7
370
    15
100
AcDbLine
 10
118.3393381808
 20
137.0523742185
 30
0.0
 11
108.1783853743
 21
137.0523742185
 31
0.0
  0
SPLINE
  5
255
330
1F
100
AcDbEntity
  8
0
  6
Continuous
 62
     7
370
    15
100
AcDbSpline
210
0.0
220
0.0
230
1.0
 70
     8
 71
     3
 72
     8
 73
     4
 74
     0
 42
0.00000001
 43
0.00000001
 40
0.0
 40
0.0
 40
0.0
 40
0.0
 40
0.0000026962299431
 40
0.0000026962299431
 40
0.0000026962299431
 40
0.0000026962299431
 10
118.3911895865415
 20
143.6381412858035
 30
0.0
 10
118.3920883298559
 20
143.6381412858035
 30
0.0
 10
118.3929895718104
 20
143.6381400602928
 30
0.0
 10
118.3938778714221
 20
143.6381376760523
 30
0.0
  0
LINE
  5
256
330
1F
100
AcDbEntity
  8
0
  6
Continuous
 62
     7
370
    15
100
AcDbLine
 10
118.3911867711
 20
143.6381412455
 30
0.0
 11
118.3393381808
 21
143.6381412455
 31
0.0
  0
LINE
  5
257
330
1F
100
AcDbEntity
  8
0
  6
Continuous
 62
     7
370
    15
100
AcDbLine
 10
108.1783853743
 20
143.6381412455
 30
0.0
 11
118.3393381808
 21
143.6381412455
 31
0.0
  0
ELLIPSE
  5
258
330
1F
100
AcDbEntity
  8
0
  6
Continuous
 62
     7
370
    15
100
AcDbEllipse
 10
201.0368831659
 20
145.0963814765
 30
0.0
 11
0.1999999999999886
 21
0.0
 31
0.0
210
0.0
220
0.0
230
1.0
 40
0.0174550649
 41
3.542805860204289
 42
4.71238898038469
  0
ELLIPSE
  5
259
330
1F
100
AcDbEntity
  8
0
  6
Continuous
 62
     7
370
    15
100
AcDbEllipse
 10
201.2913642567
 20
145.0963814765
 30
0.0
 11
0.2000000000000171
 21
0.0
 31
0.0
210
0.0
220
0.0
230
1.0
 40
0.0174550649
 41
4.71238898038469
 42
5.881972100353211
  0
ELLIPSE
  5
25A
330
1F
100
AcDbEntity
  8
0
  6
Continuous
 62
     7
370
    15
100
AcDbEllipse
 10
201.0368831659
 20
135.5941339875
 30
0.0
 11
0.1999999999999602
 21
0.0
 31
0.0
210
0.0
220
0.0
230
1.0
 40
0.0174550649
 41
1.570796326794897
 42
2.740379446975423
  0
ELLIPSE
  5
25B
330
1F
100
AcDbEntity
  8
0
  6
Continuous
 62
     7
370
    15
100
AcDbEllipse
 10
201.2913642567
 20
135.5941339875
 30
0.0
 11
0.2000000000000171
 21
0.0
 31
0.0
210
0.0
220
0.0
230
1.0
 40
0.0174550649
 41
0.4012132068255377
 42
1.570796326794897
  0
LINE
  5
25C
330
1F
100
AcDbEntity
  8
0
  6
Continuous
 62
     7
370
    15
100
AcDbLine
 10
201.036883359
 20
145.0928906229
 30
0.0
 11
201.2913644586
 21
145.0928906229
 31
0.0
  0
LINE
  5
25D
330
1F
100
AcDbEntity
  8
0
  6
Continuous
 62
     7
370
    15
100
AcDbLine
 10
201.2913644586
 20
135.597624841
 30
0.0
 11
201.036883359
 21
135.597624841
 31
0.0
  0
LINE
  5
25E
330
1F
100
AcDbEntity
  8
0
  6
Continuous
 62
     7
370
    15
100
AcDbLine
 10
172.6073518667
 20
142.7417206828
 30
0.0
 11
172.5893624399
 21
142.7592479408
 31
0.0
  0
LINE
  5
25F
330
1F
100
AcDbEntity
  8
0
  6
Continuous
 62
     7
370
    15
100
AcDbLine
 10
199.1073506225
 20
142.7417206828
 30
0.0
 11
199.0893621269
 21
142.7592479408
 31
0.0
  0
LINE
  5
260
330
1F
100
AcDbEntity
  8
0
  6
Continuous
 62
     7
370
    15
100
AcDbLine
 10
199.0893621269
 20
137.9312675231
 30
0.0
 11
199.1073506225
 21
137.9487947811
 31
0.0
  0
LINE
  5
261
330
1F
100
AcDbEntity
  8
0
  6
Continuous
 62
     7
370
    15
100
AcDbLine
 10
172.5893624399
 20
137.9312675231
 30
0.0
 11
172.6073518667
 21
137.9487947811
 31
0.0
  0
LINE
  5
262
330
1F
100
AcDbEntity
  8
0
  6
Continuous
 62
     7
370
    15
100
AcDbLine
 10
146.0893608901
 20
137.9312675231
 30
0.0
 11
146.1073540423
 21
137.9487947811
 31
0.0
  0
LINE
  5
263
330
1F
100
AcDbEntity
  8
0
  6
Continuous
 62
     7
370
    15
100
AcDbLine
 10
157.7388838205
 20
142.7592479408
 30
0.0
 11
157.720898119
 21
142.7417206828
 31
0.0
  0
LINE
  5
264
330
1F
100
AcDbEntity
  8
0
  6
Continuous
 62
     7
370
    15
100
AcDbLine
 10
131.2209002945
 20
137.9487947811
 30
0.0
 11
131.2388859961
 21
137.9312675231
 31
0.0
  0
LINE
  5
265
330
1F
100
AcDbEntity
  8
0
  6
Continuous
 62
     7
370
    15
100
AcDbLine
 10
146.1073540423
 20
142.7417206828
 30
0.0
 11
146.0893608901
 21
142.7592479408
 31
0.0
  0
LINE
  5
266
330
1F
100
AcDbEntity
  8
0
  6
Continuous
 62
     7
370
    15
100
AcDbLine
 10
157.720898119
 20
137.9487947811
 30
0.0
 11
157.7388838205
 21
137.9312675231
 31
0.0
  0
LINE
  5
267
330
1F
100
AcDbEntity
  8
0
  6
Continuous
 62
     7
370
    15
100
AcDbLine
 10
131.2388859961
 20
142.7592479408
 30
0.0
 11
131.2209002945
 21
142.7417206828
 31
0.0
  0
LINE
  5
268
330
1F
100
AcDbEntity
  8
0
  6
Continuous
 62
     7
370
    15
100
AcDbLine
 10
119.6073524926
 20
142.7417206828
 30
0.0
 11
119.5893593404
 21
142.7592479408
 31
0.0
  0
LINE
  5
269
330
1F
100
AcDbEntity
  8
0
  6
Continuous
 62
     7
370
    15
100
AcDbLine
 10
119.5893593404
 20
137.9312675231
 30
0.0
 11
119.6073524926
 21
137.9487947811
 31
0.0
  0
LINE
  5
26A
330
1F
100
AcDbEntity
  8
0
  6
Continuous
 62
     7
370
    15
100
AcDbLine
 10
184.2208959434
 20
137.9487947811
 30
0.0
 11
184.2388853702
 21
137.9312675231
 31
0.0
  0
LINE
  5
26B
330
1F
100
AcDbEntity
  8
0
  6
Continuous
 62
     7
370
    15
100
AcDbLine
 10
184.2388853702
 20
142.7592479408
 30
0.0
 11
184.2208959434
 21
142.7417206828
 31
0.0
  0
LINE
  5
26C
330
1F
100
AcDbEntity
  8
0
  6
Continuous
 62
     7
370
    15
100
AcDbLine
 10
172.0004610989
 20
143.2904922654
 30
0.0
 11
171.9824716721
 21
143.3080192906
 31
0.0
  0
LINE
  5
26D
330
1F
100
AcDbEntity
  8
0
  6
Continuous
 62
     7
370
    15
100
AcDbLine
 10
118.9824722979
 20
143.3080192906
 30
0.0
 11
119.0004579995
 21
143.2904922654
 31
0.0
  0
LINE
  5
26E
330
1F
100
AcDbEntity
  8
0
  6
Continuous
 62
     7
370
    15
100
AcDbLine
 10
198.500460786
 20
143.2904922654
 30
0.0
 11
198.4824713591
 21
143.3080192906
 31
0.0
  0
LINE
  5
26F
330
1F
100
AcDbEntity
  8
0
  6
Continuous
 62
     7
370
    15
100
AcDbLine
 10
145.5004595492
 20
143.2904922654
 30
0.0
 11
145.4824738476
 21
143.3080192906
 31
0.0
  0
LINE
  5
270
330
1F
100
AcDbEntity
  8
0
  6
Continuous
 62
     7
370
    15
100
AcDbLine
 10
131.8277873371
 20
143.2904922654
 30
0.0
 11
131.8457730386
 21
143.3080192906
 31
0.0
  0
LINE
  5
271
330
1F
100
AcDbEntity
  8
0
  6
Continuous
 62
     7
370
    15
100
AcDbLine
 10
198.500460786
 20
137.4000231986
 30
0.0
 11
198.4824713591
 21
137.3824961734
 31
0.0
  0
LINE
  5
272
330
1F
100
AcDbEntity
  8
0
  6
Continuous
 62
     7
370
    15
100
AcDbLine
 10
158.3277888868
 20
137.4000231986
 30
0.0
 11
158.3457745883
 21
137.3824961734
 31
0.0
  0
LINE
  5
273
330
1F
100
AcDbEntity
  8
0
  6
Continuous
 62
     7
370
    15
100
AcDbLine
 10
158.3277888868
 20
143.2904922654
 30
0.0
 11
158.3457745883
 21
143.3080192906
 31
0.0
  0
LINE
  5
274
330
1F
100
AcDbEntity
  8
0
  6
Continuous
 62
     7
370
    15
100
AcDbLine
 10
145.5004595492
 20
137.4000231986
 30
0.0
 11
145.4824738476
 21
137.3824961734
 31
0.0
  0
LINE
  5
275
330
1F
100
AcDbEntity
  8
0
  6
Continuous
 62
     7
370
    15
100
AcDbLine
 10
119.0004579995
 20
137.4000231986
 30
0.0
 11
118.9824722979
 21
137.3824961734
 31
0.0
  0
LINE
  5
276
330
1F
100
AcDbEntity
  8
0
  6
Continuous
 62
     7
370
    15
100
AcDbLine
 10
172.0004610989
 20
137.4000231986
 30
0.0
 11
171.9824716721
 21
137.3824961734
 31
0.0
  0
LINE
  5
277
330
1F
100
AcDbEntity
  8
0
  6
Continuous
 62
     7
370
    15
100
AcDbLine
 10
184.8277867112
 20
143.2904922654
 30
0.0
 11
184.8457761381
 21
143.3080192906
 31
0.0
  0
LINE
  5
278
330
1F
100
AcDbEntity
  8
0
  6
Continuous
 62
     7
370
    15
100
AcDbLine
 10
184.8457761381
 20
137.3824961734
 30
0.0
 11
184.8277867112
 21
137.4000231986
 31
0.0
  0
LINE
  5
279
330
1F
100
AcDbEntity
  8
0
  6
Continuous
 62
     7
370
    15
100
AcDbLine
 10
131.8457730386
 20
137.3824961734
 30
0.0
 11
131.8277873371
 21
137.4000231986
 31
0.0
  0
CIRCLE
  5
27A
330
1F
100
AcDbEntity
  8
0
  6
Continuous
 62
     7
370
    15
100
AcDbCircle
 10
326.1641237113
 20
140.345257732
 30
0.0
 40
3.134427536804139
  0
CIRCLE
  5
27B
330
1F
100
AcDbEntity
  8
0
  6
Continuous
 62
     7
370
    15
100
AcDbCircle
 10
214.1641237113
 20
140.345257732
 30
0.0
 40
3.134427536804139
  0
CIRCLE
  5
27C
330
1F
100
AcDbEntity
  8
0
  6
Continuous
 62
     7
370
    15
100
AcDbCircle
 10
102.1641237113
 20
140.345257732
 30
0.0
 40
3.134427536804139
  0
LWPOLYLINE
  5
27D
330
1F
100
AcDbEntity
  8
0
  6
Continuous
 62
     7
370
    15
100
AcDbPolyline
 90
        3
 70
   128
 43
0.0
 10
185.0666150722
 20
137.1910828416
 10
185.0308466974
 20
137.2239326843
 10
185.0238096241
 20
137.2296239965
  0
LWPOLYLINE
  5
27E
330
1F
100
AcDbEntity
  8
0
  6
Continuous
 62
     7
370
    15
100
AcDbPolyline
 90
        3
 70
   128
 43
0.0
 10
132.0666156981
 20
137.1910828416
 10
132.0308454606
 20
137.2239326843
 10
132.0238121126
 20
137.2296239965
  0
LWPOLYLINE
  5
27F
330
1F
100
AcDbEntity
  8
0
  6
Continuous
 62
     7
370
    15
100
AcDbPolyline
 90
        3
 70
   128
 43
0.0
 10
118.7616296384
 20
143.4994326223
 10
118.7973998759
 20
143.4665827796
 10
118.8044406745
 20
143.4608914674
  0
ARC
  5
280
330
1F
100
AcDbEntity
  8
0
  6
Continuous
 62
     7
370
    15
100
AcDbCircle
 10
198.5476960802
 20
143.8929104807
 30
0.0
 40
0.4976669742683125
100
AcDbArc
 50
229.0549621268
 51
243.1241813039
  0
ARC
  5
281
330
1F
100
AcDbEntity
  8
0
  6
Continuous
 62
     7
370
    15
100
AcDbCircle
 10
131.7804752903
 20
143.8930466702
 30
0.0
 40
0.4978213635779202
100
AcDbArc
 50
297.3982599268
 51
310.9416002012
  0
ARC
  5
282
330
1F
100
AcDbEntity
  8
0
  6
Continuous
 62
     7
370
    15
100
AcDbCircle
 10
145.5479131066
 20
143.8932379337
 30
0.0
 40
0.4980585706250023
100
AcDbArc
 50
229.0605209844
 51
243.1186224463
  0
ARC
  5
283
330
1F
100
AcDbEntity
  8
0
  6
Continuous
 62
     7
370
    15
100
AcDbCircle
 10
119.0475662256
 20
143.8927131453
 30
0.0
 40
0.4974309860158239
100
AcDbArc
 50
229.0516079261
 51
243.1275355045
  0
ARC
  5
284
330
1F
100
AcDbEntity
  8
0
  6
Continuous
 62
     7
370
    15
100
AcDbCircle
 10
172.0477381518
 20
143.8929753705
 30
0.0
 40
0.4977445747132607
100
AcDbArc
 50
229.0560643945
 51
243.1230790362
  0
ARC
  5
285
330
1F
100
AcDbEntity
  8
0
  6
Continuous
 62
     7
370
    15
100
AcDbCircle
 10
158.2804609305
 20
143.8930387319
 30
0.0
 40
0.4978233516525118
100
AcDbArc
 50
297.4006866993
 51
310.9432581795
  0
ARC
  5
286
330
1F
100
AcDbEntity
  8
0
  6
Continuous
 62
     7
370
    15
100
AcDbCircle
 10
184.7805596189
 20
143.8928993715
 30
0.0
 40
0.4976532080464141
100
AcDbArc
 50
297.3977608564
 51
310.9451627945
  0
ARC
  5
287
330
1F
100
AcDbEntity
  8
0
  6
Continuous
 62
     7
370
    15
100
AcDbCircle
 10
198.5477168296
 20
136.7975770242
 30
0.0
 40
0.4977016905820124
100
AcDbArc
 50
117.399105055
 51
130.9447328431
  0
ARC
  5
288
330
1F
100
AcDbEntity
  8
0
  6
Continuous
 62
     7
370
    15
100
AcDbCircle
 10
172.0477095614
 20
136.7975789777
 30
0.0
 40
0.4976964675957713
100
AcDbArc
 50
117.3984336935
 51
130.9443829579
  0
ARC
  5
289
330
1F
100
AcDbEntity
  8
0
  6
Continuous
 62
     7
370
    15
100
AcDbCircle
 10
145.5479053614
 20
136.7972882744
 30
0.0
 40
0.4980453793076265
100
AcDbArc
 50
117.4032007848
 51
130.9396158666
  0
ARC
  5
28A
330
1F
100
AcDbEntity
  8
0
  6
Continuous
 62
     7
370
    15
100
AcDbCircle
 10
119.0477261196
 20
136.7975868776
 30
0.0
 40
0.4976985002315188
100
AcDbArc
 50
117.4008613702
 51
130.946040429
  0
ARC
  5
28B
330
1F
100
AcDbEntity
  8
0
  6
Continuous
 62
     7
370
    15
100
AcDbCircle
 10
184.780551417
 20
136.7976049832
 30
0.0
 40
0.4976669742683125
100
AcDbArc
 50
49.0549621268
 51
63.1241813039
  0
ARC
  5
28C
330
1F
100
AcDbEntity
  8
0
  6
Continuous
 62
     7
370
    15
100
AcDbCircle
 10
158.2805081086
 20
136.7975400934
 30
0.0
 40
0.4977445747132206
100
AcDbArc
 50
49.0560643945
 51
63.1230790362
  0
ARC
  5
28D
330
1F
100
AcDbEntity
  8
0
  6
Continuous
 62
     7
370
    15
100
AcDbCircle
 10
131.7803337797
 20
136.7972775302
 30
0.0
 40
0.4980585706250023
100
AcDbArc
 50
49.0605209844
 51
63.1186224463
  0
SPLINE
  5
28E
330
1F
100
AcDbEntity
  8
0
  6
Continuous
 62
     7
370
    15
100
AcDbSpline
210
0.0
220
0.0
230
1.0
 70
     8
 71
     3
 72
     8
 73
     4
 74
     0
 42
0.00000001
 43
0.00000001
 40
0.0
 40
0.0
 40
0.0
 40
0.0
 40
1.0
 40
1.0
 40
1.0
 40
1.0
 10
118.7205959585999
 20
137.1738096933816
 30
0.0
 10
118.7204809286561
 20
137.1737104352768
 30
0.0
 10
118.7203658584693
 20
137.1736112339389
 30
0.0
 10
118.72025074805
 20
137.1735120893531
 30
0.0
  0
SPLINE
  5
28F
330
1F
100
AcDbEntity
  8
0
  6
Continuous
 62
     7
370
    15
100
AcDbSpline
210
0.0
220
0.0
230
1.0
 70
     8
 71
     3
 72
     8
 73
     4
 74
     0
 42
0.00000001
 43
0.00000001
 40
0.0
 40
0.0
 40
0.0
 40
0.0
 40
1.0
 40
1.0
 40
1.0
 40
1.0
 10
145.22025074805
 20
137.1735120893531
 30
0.0
 10
145.220365864436
 20
137.1736112390779
 30
0.0
 10
145.2204809346185
 20
137.1737104404216
 30
0.0
 10
145.2205959585999
 20
137.1738096933816
 30
0.0
  0
SPLINE
  5
290
330
1F
100
AcDbEntity
  8
0
  6
Continuous
 62
     7
370
    15
100
AcDbSpline
210
0.0
220
0.0
230
1.0
 70
     8
 71
     3
 72
     8
 73
     4
 74
     0
 42
0.00000001
 43
0.00000001
 40
0.0
 40
0.0
 40
0.0
 40
0.0
 40
1.0
 40
1.0
 40
1.0
 40
1.0
 10
198.22025074805
 20
137.1735120893531
 30
0.0
 10
198.220365864436
 20
137.1736112390779
 30
0.0
 10
198.2204809346185
 20
137.1737104404216
 30
0.0
 10
198.2205959585999
 20
137.1738096933816
 30
0.0
  0
SPLINE
  5
291
330
1F
100
AcDbEntity
  8
0
  6
Continuous
 62
     7
370
    15
100
AcDbSpline
210
0.0
220
0.0
230
1.0
 70
     8
 71
     3
 72
     8
 73
     4
 74
     0
 42
0.00000001
 43
0.00000001
 40
0.0
 40
0.0
 40
0.0
 40
0.0
 40
1.0
 40
1.0
 40
1.0
 40
1.0
 10
171.72025074805
 20
137.1735120893531
 30
0.0
 10
171.720365864436
 20
137.1736112390779
 30
0.0
 10
171.7204809346185
 20
137.1737104404216
 30
0.0
 10
171.7205959585999
 20
137.1738096933816
 30
0.0
  0
SPLINE
  5
292
330
1F
100
AcDbEntity
  8
0
  6
Continuous
 62
     7
370
    15
100
AcDbSpline
210
0.0
220
0.0
230
1.0
 70
     8
 71
     3
 72
     8
 73
     4
 74
     0
 42
0.00000001
 43
0.00000001
 40
0.0
 40
0.0
 40
0.0
 40
0.0
 40
1.0
 40
1.0
 40
1.0
 40
1.0
 10
132.1079966746302
 20
137.1735120893531
 30
0.0
 10
132.1078815582443
 20
137.1736112390779
 30
0.0
 10
132.1077664880618
 20
137.1737104404216
 30
0.0
 10
132.1076514640804
 20
137.1738096933816
 30
0.0
  0
SPLINE
  5
293
330
1F
100
AcDbEntity
  8
0
  6
Continuous
 62
     7
370
    15
100
AcDbSpline
210
0.0
220
0.0
230
1.0
 70
     8
 71
     3
 72
     8
 73
     4
 74
     0
 42
0.00000001
 43
0.00000001
 40
0.0
 40
0.0
 40
0.0
 40
0.0
 40
1.0
 40
1.0
 40
1.0
 40
1.0
 10
185.1076514640804
 20
137.1738096933816
 30
0.0
 10
185.1077664940241
 20
137.1737104352768
 30
0.0
 10
185.1078815642109
 20
137.1736112339389
 30
0.0
 10
185.1079966746302
 20
137.1735120893531
 30
0.0
  0
SPLINE
  5
294
330
1F
100
AcDbEntity
  8
0
  6
Continuous
 62
     7
370
    15
100
AcDbSpline
210
0.0
220
0.0
230
1.0
 70
     8
 71
     3
 72
     8
 73
     4
 74
     0
 42
0.00000001
 43
0.00000001
 40
0.0
 40
0.0
 40
0.0
 40
0.0
 40
1.0
 40
1.0
 40
1.0
 40
1.0
 10
158.6076514640804
 20
137.1738096933816
 30
0.0
 10
158.6077664940241
 20
137.1737104352768
 30
0.0
 10
158.6078815642109
 20
137.1736112339389
 30
0.0
 10
158.6079966746302
 20
137.1735120893531
 30
0.0
  0
LINE
  5
295
330
1F
100
AcDbEntity
  8
0
  6
Continuous
 62
     7
370
    15
100
AcDbLine
 10
107.6667777256
 20
143.1441730531
 30
0.0
 11
107.6667777256
 21
137.447252772
 31
0.0
  0
INSERT
  5
2A1
330
1F
100
AcDbEntity
  8
0
  6
Continuous
 62
     7
370
     0
100
AcDbBlockReference
  2
SW_CENTERMARKSYMBOL_0
 10
214.1641237113
 20
140.345257732
 30
0.0
  0
INSERT
  5
2AD
330
1F
100
AcDbEntity
  8
0
  6
Continuous
 62
     7
370
     0
100
AcDbBlockReference
  2
SW_CENTERMARKSYMBOL_1
 10
102.1641237113
 20
140.345257732
 30
0.0
  0
INSERT
  5
2B9
330
1F
100
AcDbEntity
  8
0
  6
Continuous
 62
     7
370
     0
100
AcDbBlockReference
  2
SW_CENTERMARKSYMBOL_2
 10
326.1641237113
 20
140.345257732
 30
0.0
  0
ENDSEC
  0
SECTION
  2
OBJECTS
  0
DICTIONARY
  5
C
330
0
100
AcDbDictionary
281
     1
  3
ACAD_GROUP
350
D
  3
ACAD_LAYOUT
350
1A
  3
ACAD_MLEADERSTYLE
350
2BC
  3
ACAD_MLINESTYLE
350
17
  3
ACAD_PLOTSETTINGS
350
19
  3
ACAD_PLOTSTYLENAME
350
E
  3
ACAD_VISUALSTYLE
350
2A
  3
AcDbVariableDictionary
350
2BA
  0
DICTIONARY
  5
D
102
{ACAD_REACTORS
330
C
102
}
330
C
100
AcDbDictionary
281
     1
  0
DICTIONARY
  5
1A
102
{ACAD_REACTORS
330
C
102
}
330
C
100
AcDbDictionary
281
     1
  3
Layout1
350
1E
  3
Layout2
350
26
  3
Model
350
22
  0
DICTIONARY
  5
2BC
102
{ACAD_REACTORS
330
C
102
}
330
C
100
AcDbDictionary
281
     1
  0
DICTIONARY
  5
17
102
{ACAD_REACTORS
330
C
102
}
330
C
100
AcDbDictionary
281
     1
  3
Standard
350
18
  0
DICTIONARY
  5
19
102
{ACAD_REACTORS
330
C
102
}
330
C
100
AcDbDictionary
281
     1
  0
ACDBDICTIONARYWDFLT
  5
E
102
{ACAD_REACTORS
330
C
102
}
330
C
100
AcDbDictionary
281
     1
  3
Normal
350
F
100
AcDbDictionaryWithDefault
340
F
  0
DICTIONARY
  5
2A
102
{ACAD_REACTORS
330
C
102
}
330
C
100
AcDbDictionary
281
     1
  3
2dWireframe
350
2F
  3
3D Hidden
350
31
  3
3dWireframe
350
30
  3
Basic
350
32
  3
Brighten
350
36
  3
ColorChange
350
3A
  3
Conceptual
350
34
  3
Dim
350
35
  3
Facepattern
350
39
  3
Flat
350
2B
  3
FlatWithEdges
350
2C
  3
Gouraud
350
2D
  3
GouraudWithEdges
350
2E
  3
Linepattern
350
38
  3
Realistic
350
33
  3
Thicken
350
37
  0
DICTIONARY
  5
2BA
102
{ACAD_REACTORS
330
C
102
}
330
C
100
AcDbDictionary
281
     1
  3
DIMASSOC
350
2BF
  3
HIDETEXT
350
2C0
  3
PSOLHEIGHT
350
2BE
  3
PSOLWIDTH
350
2BD
  0
LAYOUT
  5
1E
102
{ACAD_REACTORS
330
1A
102
}
330
1A
100
AcDbPlotSettings
  1

  2
none_device
  4

  6

 40
0.0
 41
0.0
 42
0.0
 43
0.0
 44
0.0
 45
0.0
 46
0.0
 47
0.0
 48
0.0
 49
0.0
140
0.0
141
0.0
142
1.0
143
1.0
 70
   688
 72
     0
 73
     0
 74
     5
  7

 75
    16
147
1.0
148
0.0
149
0.0
100
AcDbLayout
  1
Layout1
 70
     1
 71
     1
 10
0.0
 20
0.0
 11
420.0
 21
297.0
 12
0.0
 22
0.0
 32
0.0
 14
1.0000000000E+20
 24
1.0000000000E+20
 34
1.0000000000E+20
 15
-1.0000000000E+20
 25
-1.0000000000E+20
 35
-1.0000000000E+20
146
0.0
 13
0.0
 23
0.0
 33
0.0
 16
1.0
 26
0.0
 36
0.0
 17
0.0
 27
1.0
 37
0.0
 76
     0
330
1B
  0
LAYOUT
  5
26
102
{ACAD_REACTORS
330
1A
102
}
330
1A
100
AcDbPlotSettings
  1

  2
none_device
  4

  6

 40
0.0
 41
0.0
 42
0.0
 43
0.0
 44
0.0
 45
0.0
 46
0.0
 47
0.0
 48
0.0
 49
0.0
140
0.0
141
0.0
142
1.0
143
1.0
 70
   688
 72
     0
 73
     0
 74
     5
  7

 75
    16
147
1.0
148
0.0
149
0.0
100
AcDbLayout
  1
Layout2
 70
     1
 71
     2
 10
0.0
 20
0.0
 11
0.0
 21
0.0
 12
0.0
 22
0.0
 32
0.0
 14
0.0
 24
0.0
 34
0.0
 15
0.0
 25
0.0
 35
0.0
146
0.0
 13
0.0
 23
0.0
 33
0.0
 16
1.0
 26
0.0
 36
0.0
 17
0.0
 27
1.0
 37
0.0
 76
     0
330
23
  0
LAYOUT
  5
22
102
{ACAD_REACTORS
330
1A
102
}
330
1A
100
AcDbPlotSettings
  1

  2
none_device
  4

  6

 40
0.0
 41
0.0
 42
0.0
 43
0.0
 44
0.0
 45
0.0
 46
0.0
 47
0.0
 48
0.0
 49
0.0
140
0.0
141
0.0
142
1.0
143
1.0
 70
  1712
 72
     0
 73
     0
 74
     0
  7

 75
     0
147
1.0
148
0.0
149
0.0
100
AcDbLayout
  1
Model
 70
     1
 71
     0
 10
0.0
 20
0.0
 11
420.0
 21
297.0
 12
0.0
 22
0.0
 32
0.0
 14
0.0
 24
0.0
 34
0.0
 15
420.0
 25
297.0
 35
0.0
146
0.0
 13
0.0
 23
0.0
 33
0.0
 16
1.0
 26
0.0
 36
0.0
 17
0.0
 27
1.0
 37
0.0
 76
     0
330
1F
331
29
  0
MLINESTYLE
  5
18
102
{ACAD_REACTORS
330
17
102
}
330
17
100
AcDbMlineStyle
  2
Standard
 70
     0
  3

 62
   256
 51
90.0
 52
90.0
 71
     2
 49
0.5
 62
   256
  6
BYLAYER
 49
-0.5
 62
   256
  6
BYLAYER
  0
ACDBPLACEHOLDER
  5
F
102
{ACAD_REACTORS
330
E
102
}
330
E
  0
VISUALSTYLE
  5
2F
102
{ACAD_REACTORS
330
2A
102
}
330
2A
100
AcDbVisualStyle
  2
2dWireframe
 70
     4
 71
     0
 72
     2
 73
     0
 90
        0
 40
-0.6
 41
-30.0
 62
     5
 63
     7
 74
     1
 91
        4
 64
     7
 65
   257
 75
     1
175
     1
 42
1.0
 92
        0
 66
   257
 43
1.0
 76
     1
 77
     6
 78
     2
 67
     7
 79
     5
170
     0
171
     0
290
     0
174
     0
 93
        1
 44
0.0
173
     0
291
     0
 45
0.0
1001
ACAD
1000
AcDbSavedByObjectVersion
1070
     0
  0
VISUALSTYLE
  5
31
102
{ACAD_REACTORS
330
2A
102
}
330
2A
100
AcDbVisualStyle
  2
3D Hidden
 70
     6
 71
     1
 72
     2
 73
     2
 90
        0
 40
-0.6
 41
-30.0
 62
     5
 63
     7
 74
     2
 91
        2
 64
     7
 65
   257
 75
     2
175
     1
 42
40.0
 92
        0
 66
   257
 43
1.0
 76
     1
 77
     6
 78
     2
 67
     7
 79
     3
170
     0
171
     0
290
     0
174
     0
 93
        1
 44
0.0
173
     0
291
     0
 45
0.0
1001
ACAD
1000
AcDbSavedByObjectVersion
1070
     0
  0
VISUALSTYLE
  5
30
102
{ACAD_REACTORS
330
2A
102
}
330
2A
100
AcDbVisualStyle
  2
3dWireframe
 70
     5
 71
     0
 72
     2
 73
     0
 90
        0
 40
-0.6
 41
-30.0
 62
     5
 63
     7
 74
     1
 91
        4
 64
     7
 65
   257
 75
     1
175
     1
 42
1.0
 92
        0
 66
   257
 43
1.0
 76
     1
 77
     6
 78
     2
 67
     7
 79
     5
170
     0
171
     0
290
     0
174
     0
 93
        1
 44
0.0
173
     0
291
     0
 45
0.0
1001
ACAD
1000
AcDbSavedByObjectVersion
1070
     0
  0
VISUALSTYLE
  5
32
102
{ACAD_REACTORS
330
2A
102
}
330
2A
100
AcDbVisualStyle
  2
Basic
 70
     7
 71
     1
 72
     0
 73
     1
 90
        0
 40
-0.6
 41
-30.0
 62
     5
 63
     7
 74
     0
 91
        4
 64
     7
 65
   257
 75
     1
175
     1
 42
1.0
 92
        8
 66
     7
 43
1.0
 76
     1
 77
     6
 78
     2
 67
     7
 79
     5
170
     0
171
     0
290
     0
174
     0
 93
        1
 44
0.0
173
     0
291
     1
 45
0.0
1001
ACAD
1000
AcDbSavedByObjectVersion
1070
     0
  0
VISUALSTYLE
  5
36
102
{ACAD_REACTORS
330
2A
102
}
330
2A
100
AcDbVisualStyle
  2
Brighten
 70
    12
 71
     2
 72
     2
 73
     0
 90
        0
 40
-0.6
 41
-30.0
 62
     5
 63
     7
 74
     1
 91
        4
 64
     7
 65
   257
 75
     1
175
     1
 42
1.0
 92
        8
 66
     7
 43
1.0
 76
     1
 77
     6
 78
     2
 67
     7
 79
     5
170
     0
171
     0
290
     0
174
     0
 93
        1
 44
50.0
173
     0
291
     1
 45
0.0
1001
ACAD
1000
AcDbSavedByObjectVersion
1070
     0
  0
VISUALSTYLE
  5
3A
102
{ACAD_REACTORS
330
2A
102
}
330
2A
100
AcDbVisualStyle
  2
ColorChange
 70
    16
 71
     2
 72
     2
 73
     3
 90
        0
 40
-0.6
 41
-30.0
 62
     5
 63
     8
 74
     1
 91
        4
 64
     7
 65
   257
 75
     1
175
     1
 42
1.0
 92
        8
 66
     8
 43
1.0
 76
     1
 77
     6
 78
     2
 67
     7
 79
     5
170
     0
171
     0
290
     0
174
     0
 93
        1
 44
0.0
173
     0
291
     1
 45
0.0
1001
ACAD
1000
AcDbSavedByObjectVersion
1070
     0
  0
VISUALSTYLE
  5
34
102
{ACAD_REACTORS
330
2A
102
}
330
2A
100
AcDbVisualStyle
  2
Conceptual
 70
     9
 71
     3
 72
     2
 73
     0
 90
        0
 40
-0.6
 41
-30.0
 62
     5
 63
     7
 74
     2
 91
        2
 64
     7
 65
   257
 75
     1
175
     1
 42
40.0
 92
        8
 66
     7
 43
1.0
 76
     1
 77
     6
 78
     2
 67
     7
 79
     3
170
     0
171
     0
290
     0
174
     0
 93
        1
 44
0.0
173
     0
291
     0
 45
0.0
1001
ACAD
1000
AcDbSavedByObjectVersion
1070
     0
  0
VISUALSTYLE
  5
35
102
{ACAD_REACTORS
330
2A
102
}
330
2A
100
AcDbVisualStyle
  2
Dim
 70
    11
 71
     2
 72
     2
 73
     0
 90
        0
 40
-0.6
 41
-30.0
 62
     5
 63
     7
 74
     1
 91
        4
 64
     7
 65
   257
 75
     1
175
     1
 42
1.0
 92
        8
 66
     7
 43
1.0
 76
     1
 77
     6
 78
     2
 67
     7
 79
     5
170
     0
171
     0
290
     0
174
     0
 93
        1
 44
-50.0
173
     0
291
     1
 45
0.0
1001
ACAD
1000
AcDbSavedByObjectVersion
1070
     0
  0
VISUALSTYLE
  5
39
102
{ACAD_REACTORS
330
2A
102
}
330
2A
100
AcDbVisualStyle
  2
Facepattern
 70
    15
 71
     2
 72
     2
 73
     0
 90
        0
 40
-0.6
 41
-30.0
 62
     5
 63
     7
 74
     1
 91
        4
 64
     7
 65
   257
 75
     1
175
     1
 42
1.0
 92
        8
 66
     7
 43
1.0
 76
     1
 77
     6
 78
     2
 67
     7
 79
     5
170
     0
171
     0
290
     0
174
     0
 93
        1
 44
0.0
173
     0
291
     1
 45
0.0
1001
ACAD
1000
AcDbSavedByObjectVersion
1070
     0
  0
VISUALSTYLE
  5
2B
102
{ACAD_REACTORS
330
2A
102
}
330
2A
100
AcDbVisualStyle
  2
Flat
 70
     0
 71
     2
 72
     1
 73
     1
 90
        2
 40
-0.6
 41
30.0
 62
     5
 63
     7
 74
     0
 91
        4
 64
     7
 65
   257
 75
     1
175
     1
 42
1.0
 92
        8
 66
     7
 43
1.0
 76
     1
 77
     6
 78
     2
 67
     7
 79
     5
170
     0
171
     0
290
     0
174
     0
 93
       13
 44
0.0
173
     0
291
     1
 45
0.0
1001
ACAD
1000
AcDbSavedByObjectVersion
1070
     0
  0
VISUALSTYLE
  5
2C
102
{ACAD_REACTORS
330
2A
102
}
330
2A
100
AcDbVisualStyle
  2
FlatWithEdges
 70
     1
 71
     2
 72
     1
 73
     1
 90
        2
 40
-0.6
 41
30.0
 62
     5
 63
     7
 74
     1
 91
        4
 64
     7
 65
   257
 75
     1
175
     1
 42
1.0
 92
        0
 66
   257
 43
1.0
 76
     1
 77
     6
 78
     2
 67
     7
 79
     5
170
     0
171
     0
290
     0
174
     0
 93
       13
 44
0.0
173
     0
291
     1
 45
0.0
1001
ACAD
1000
AcDbSavedByObjectVersion
1070
     0
  0
VISUALSTYLE
  5
2D
102
{ACAD_REACTORS
330
2A
102
}
330
2A
100
AcDbVisualStyle
  2
Gouraud
 70
     2
 71
     2
 72
     2
 73
     1
 90
        2
 40
-0.6
 41
30.0
 62
     5
 63
     7
 74
     0
 91
        4
 64
     7
 65
   257
 75
     1
175
     1
 42
1.0
 92
        0
 66
     7
 43
1.0
 76
     1
 77
     6
 78
     2
 67
     7
 79
     5
170
     0
171
     0
290
     0
174
     0
 93
       13
 44
0.0
173
     0
291
     1
 45
0.0
1001
ACAD
1000
AcDbSavedByObjectVersion
1070
     0
  0
VISUALSTYLE
  5
2E
102
{ACAD_REACTORS
330
2A
102
}
330
2A
100
AcDbVisualStyle
  2
GouraudWithEdges
 70
     3
 71
     2
 72
     2
 73
     1
 90
        2
 40
-0.6
 41
30.0
 62
     5
 63
     7
 74
     1
 91
        4
 64
     7
 65
   257
 75
     1
175
     1
 42
1.0
 92
        0
 66
   257
 43
1.0
 76
     1
 77
     6
 78
     2
 67
     7
 79
     5
170
     0
171
     0
290
     0
174
     0
 93
       13
 44
0.0
173
     0
291
     1
 45
0.0
1001
ACAD
1000
AcDbSavedByObjectVersion
1070
     0
  0
VISUALSTYLE
  5
38
102
{ACAD_REACTORS
330
2A
102
}
330
2A
100
AcDbVisualStyle
  2
Linepattern
 70
    14
 71
     2
 72
     2
 73
     0
 90
        0
 40
-0.6
 41
-30.0
 62
     5
 63
     7
 74
     1
 91
        4
 64
     7
 65
   257
 75
     7
175
     7
 42
1.0
 92
        8
 66
     7
 43
1.0
 76
     1
 77
     6
 78
     2
 67
     7
 79
     5
170
     0
171
     0
290
     0
174
     0
 93
        1
 44
0.0
173
     0
291
     1
 45
0.0
1001
ACAD
1000
AcDbSavedByObjectVersion
1070
     0
  0
VISUALSTYLE
  5
33
102
{ACAD_REACTORS
330
2A
102
}
330
2A
100
AcDbVisualStyle
  2
Realistic
 70
     8
 71
     2
 72
     2
 73
     0
 90
        0
 40
-0.6
 41
-30.0
 62
     5
 63
     7
 74
     1
 91
        0
 64
     7
 65
   257
 75
     1
175
     1
 42
1.0
 92
        8
 66
     8
 43
1.0
 76
     1
 77
     6
 78
     2
 67
     7
 79
     5
170
     0
171
     0
290
     0
174
     0
 93
       13
 44
0.0
173
     0
291
     0
 45
0.0
1001
ACAD
1000
AcDbSavedByObjectVersion
1070
     0
  0
VISUALSTYLE
  5
37
102
{ACAD_REACTORS
330
2A
102
}
330
2A
100
AcDbVisualStyle
  2
Thicken
 70
    13
 71
     2
 72
     2
 73
     0
 90
        0
 40
-0.6
 41
-30.0
 62
     5
 63
     7
 74
     1
 91
        4
 64
     7
 65
   257
 75
     1
175
     1
 42
1.0
 92
       12
 66
     7
 43
1.0
 76
     1
 77
     6
 78
     2
 67
     7
 79
     5
170
     0
171
     0
290
     0
174
     0
 93
        1
 44
0.0
173
     0
291
     1
 45
0.0
1001
ACAD
1000
AcDbSavedByObjectVersion
1070
     0
  0
DICTIONARYVAR
  5
2BF
102
{ACAD_REACTORS
330
2BA
102
}
330
2BA
100
DictionaryVariables
280
     0
  1
2
  0
DICTIONARYVAR
  5
2C0
102
{ACAD_REACTORS
330
2BA
102
}
330
2BA
100
DictionaryVariables
280
     0
  1
1
  0
DICTIONARYVAR
  5
2BE
102
{ACAD_REACTORS
330
2BA
102
}
330
2BA
100
DictionaryVariables
280
     0
  1
80.000000
  0
DICTIONARYVAR
  5
2BD
102
{ACAD_REACTORS
330
2BA
102
}
330
2BA
100
DictionaryVariables
280
     0
  1
5.000000
  0
ENDSEC
  0
EOF
