  0
SECTION
  2
HEADER
  9
$ACADVER
  1
AC1015
  9
$ACADMAINTVER
 70
     6
  9
$DWGCODEPAGE
  3
ANSI_1252
  9
$INSBASE
 10
0.0
 20
0.0
 30
0.0
  9
$EXTMIN
 10
0.0
 20
0.0
 30
0.0
  9
$EXTMAX
 10
420.0
 20
297.0
 30
0.0
  9
$LIMMIN
 10
0.0
 20
0.0
  9
$LIMMAX
 10
420.0
 20
297.0
  9
$ORTHOMODE
 70
     0
  9
$REGENMODE
 70
     1
  9
$FILLMODE
 70
     1
  9
$QTEXTMODE
 70
     0
  9
$MIRRTEXT
 70
     1
  9
$LTSCALE
 40
1.0
  9
$ATTMODE
 70
     1
  9
$TEXTSIZE
 40
3.5
  9
$TRACEWID
 40
1.0
  9
$TEXTSTYLE
  7
STANDARD
  9
$CLAYER
  8
0
  9
$CELTYPE
  6
ByLayer
  9
$CECOLOR
 62
   256
  9
$CELTSCALE
 40
1.0
  9
$DISPSILH
 70
     0
  9
$DIMSCALE
 40
1.0
  9
$DIMASZ
 40
6.0
  9
$DIMEXO
 40
1.0
  9
$DIMDLI
 40
3.75
  9
$DIMRND
 40
0.0
  9
$DIMDLE
 40
0.0
  9
$DIMEXE
 40
1.0
  9
$DIMTP
 40
0.0
  9
$DIMTM
 40
0.0
  9
$DIMTXT
 40
3.5
  9
$DIMCEN
 40
2.5
  9
$DIMTSZ
 40
0.0
  9
$DIMTOL
 70
     0
  9
$DIMLIM
 70
     0
  9
$DIMTIH
 70
     1
  9
$DIMTOH
 70
     1
  9
$DIMSE1
 70
     0
  9
$DIMSE2
 70
     0
  9
$DIMTAD
 70
     1
  9
$DIMZIN
 70
     0
  9
$DIMBLK
  1

  9
$DIMASO
 70
     1
  9
$DIMSHO
 70
     1
  9
$DIMPOST
  1

  9
$DIMAPOST
  1

  9
$DIMALT
 70
     0
  9
$DIMALTD
 70
     3
  9
$DIMALTF
 40
0.0393700787
  9
$DIMLFAC
 40
1.0
  9
$DIMTOFL
 70
     1
  9
$DIMTVP
 40
0.0
  9
$DIMTIX
 70
     0
  9
$DIMSOXD
 70
     0
  9
$DIMSAH
 70
     0
  9
$DIMBLK1
  1

  9
$DIMBLK2
  1

  9
$DIMSTYLE
  2
ISO-25
  9
$DIMCLRD
 70
     0
  9
$DIMCLRE
 70
     0
  9
$DIMCLRT
 70
     0
  9
$DIMTFAC
 40
1.0
  9
$DIMGAP
 40
1.524
  9
$DIMJUST
 70
     0
  9
$DIMSD1
 70
     0
  9
$DIMSD2
 70
     0
  9
$DIMTOLJ
 70
     0
  9
$DIMTZIN
 70
     0
  9
$DIMALTZ
 70
     0
  9
$DIMALTTZ
 70
     0
  9
$DIMUPT
 70
     0
  9
$DIMDEC
 70
     3
  9
$DIMTDEC
 70
     3
  9
$DIMALTU
 70
     2
  9
$DIMALTTD
 70
     3
  9
$DIMTXSTY
  7
STANDARD
  9
$DIMAUNIT
 70
     0
  9
$DIMADEC
 70
     2
  9
$DIMALTRND
 40
0.0
  9
$DIMAZIN
 70
     0
  9
$DIMDSEP
 70
    44
  9
$DIMATFIT
 70
     3
  9
$DIMFRAC
 70
     0
  9
$DIMLDRBLK
  1

  9
$DIMLUNIT
 70
     2
  9
$DIMLWD
 70
    -2
  9
$DIMLWE
 70
    -2
  9
$DIMTMOVE
 70
     0
  9
$LUNITS
 70
     2
  9
$LUPREC
 70
     2
  9
$SKETCHINC
 40
1.0
  9
$FILLETRAD
 40
10.0
  9
$AUNITS
 70
     0
  9
$AUPREC
 70
     2
  9
$MENU
  1
.
  9
$ELEVATION
 40
0.0
  9
$PELEVATION
 40
0.0
  9
$THICKNESS
 40
0.0
  9
$LIMCHECK
 70
     0
  9
$CHAMFERA
 40
10.0
  9
$CHAMFERB
 40
10.0
  9
$CHAMFERC
 40
20.0
  9
$CHAMFERD
 40
0.0
  9
$SKPOLY
 70
     0
  9
$TDCREATE
 40
2457813.670941262
  9
$TDUCREATE
 40
2457813.254274595
  9
$TDUPDATE
 40
2457813.670941273
  9
$TDUUPDATE
 40
2457813.254274607
  9
$TDINDWG
 40
0.0000000116
  9
$TDUSRTIMER
 40
0.0000000116
  9
$USRTIMER
 70
     1
  9
$ANGBASE
 50
0.0
  9
$ANGDIR
 70
     0
  9
$PDMODE
 70
     0
  9
$PDSIZE
 40
-1.0
  9
$PLINEWID
 40
0.0
  9
$SPLFRAME
 70
     0
  9
$SPLINETYPE
 70
     6
  9
$SPLINESEGS
 70
     8
  9
$HANDSEED
  5
F6
  9
$SURFTAB1
 70
     6
  9
$SURFTAB2
 70
     6
  9
$SURFTYPE
 70
     6
  9
$SURFU
 70
     6
  9
$SURFV
 70
     6
  9
$UCSBASE
  2

  9
$UCSNAME
  2

  9
$UCSORG
 10
0.0
 20
0.0
 30
0.0
  9
$UCSXDIR
 10
1.0
 20
0.0
 30
0.0
  9
$UCSYDIR
 10
0.0
 20
1.0
 30
0.0
  9
$UCSORTHOREF
  2

  9
$UCSORTHOVIEW
 70
     0
  9
$UCSORGTOP
 10
0.0
 20
0.0
 30
0.0
  9
$UCSORGBOTTOM
 10
0.0
 20
0.0
 30
0.0
  9
$UCSORGLEFT
 10
0.0
 20
0.0
 30
0.0
  9
$UCSORGRIGHT
 10
0.0
 20
0.0
 30
0.0
  9
$UCSORGFRONT
 10
0.0
 20
0.0
 30
0.0
  9
$UCSORGBACK
 10
0.0
 20
0.0
 30
0.0
  9
$PUCSBASE
  2

  9
$PUCSNAME
  2

  9
$PUCSORG
 10
0.0
 20
0.0
 30
0.0
  9
$PUCSXDIR
 10
1.0
 20
0.0
 30
0.0
  9
$PUCSYDIR
 10
0.0
 20
1.0
 30
0.0
  9
$PUCSORTHOREF
  2

  9
$PUCSORTHOVIEW
 70
     0
  9
$PUCSORGTOP
 10
0.0
 20
0.0
 30
0.0
  9
$PUCSORGBOTTOM
 10
0.0
 20
0.0
 30
0.0
  9
$PUCSORGLEFT
 10
0.0
 20
0.0
 30
0.0
  9
$PUCSORGRIGHT
 10
0.0
 20
0.0
 30
0.0
  9
$PUCSORGFRONT
 10
0.0
 20
0.0
 30
0.0
  9
$PUCSORGBACK
 10
0.0
 20
0.0
 30
0.0
  9
$USERI1
 70
     0
  9
$USERI2
 70
     0
  9
$USERI3
 70
     0
  9
$USERI4
 70
     0
  9
$USERI5
 70
     0
  9
$USERR1
 40
0.0
  9
$USERR2
 40
0.0
  9
$USERR3
 40
0.0
  9
$USERR4
 40
0.0
  9
$USERR5
 40
0.0
  9
$WORLDVIEW
 70
     1
  9
$SHADEDGE
 70
     3
  9
$SHADEDIF
 70
    70
  9
$TILEMODE
 70
     1
  9
$MAXACTVP
 70
    64
  9
$PINSBASE
 10
0.0
 20
0.0
 30
0.0
  9
$PLIMCHECK
 70
     0
  9
$PEXTMIN
 10
1.0000000000E+20
 20
1.0000000000E+20
 30
1.0000000000E+20
  9
$PEXTMAX
 10
-1.0000000000E+20
 20
-1.0000000000E+20
 30
-1.0000000000E+20
  9
$PLIMMIN
 10
0.0
 20
0.0
  9
$PLIMMAX
 10
420.0
 20
297.0
  9
$UNITMODE
 70
     0
  9
$VISRETAIN
 70
     1
  9
$PLINEGEN
 70
     0
  9
$PSLTSCALE
 70
     1
  9
$TREEDEPTH
 70
  3020
  9
$CMLSTYLE
  2
Standard
  9
$CMLJUST
 70
     0
  9
$CMLSCALE
 40
20.0
  9
$PROXYGRAPHICS
 70
     1
  9
$MEASUREMENT
 70
     1
  9
$CELWEIGHT
370
    -1
  9
$ENDCAPS
280
     0
  9
$JOINSTYLE
280
     0
  9
$LWDISPLAY
290
     1
  9
$INSUNITS
 70
     4
  9
$HYPERLINKBASE
  1

  9
$STYLESHEET
  1

  9
$XEDIT
290
     1
  9
$CEPSNTYPE
380
     0
  9
$PSTYLEMODE
290
     1
  9
$FINGERPRINTGUID
  2
{179E9622-D8CA-4468-B2EC-7B30E6B30043}
  9
$VERSIONGUID
  2
{FAEB1C32-E019-11D5-929B-00C0DF256EC4}
  9
$EXTNAMES
290
     1
  9
$PSVPSCALE
 40
0.0
  9
$OLESTARTUP
290
     0
  0
ENDSEC
  0
SECTION
  2
CLASSES
  0
CLASS
  1
ACDBDICTIONARYWDFLT
  2
AcDbDictionaryWithDefault
  3
ObjectDBX Classes
 90
        0
280
     0
281
     0
  0
CLASS
  1
VISUALSTYLE
  2
AcDbVisualStyle
  3
ObjectDBX Classes
 90
     4095
280
     0
281
     0
  0
CLASS
  1
DICTIONARYVAR
  2
AcDbDictionaryVar
  3
ObjectDBX Classes
 90
        0
280
     0
281
     0
  0
CLASS
  1
ACDBPLACEHOLDER
  2
AcDbPlaceHolder
  3
ObjectDBX Classes
 90
        0
280
     0
281
     0
  0
CLASS
  1
LAYOUT
  2
AcDbLayout
  3
ObjectDBX Classes
 90
        0
280
     0
281
     0
  0
ENDSEC
  0
SECTION
  2
TABLES
  0
TABLE
  2
VPORT
  5
8
330
0
100
AcDbSymbolTable
 70
     1
  0
VPORT
  5
29
330
8
100
AcDbSymbolTableRecord
100
AcDbViewportTableRecord
  2
*Active
 70
     0
 10
0.0
 20
0.0
 11
1.0
 21
1.0
 12
210.0
 22
148.5
 13
0.0
 23
0.0
 14
10.0
 24
10.0
 15
10.0
 25
10.0
 16
0.0
 26
0.0
 36
1.0
 17
0.0
 27
0.0
 37
0.0
 40
297.0
 41
1.4141414141
 42
50.0
 43
0.0
 44
0.0
 50
0.0
 51
0.0
 71
     0
 72
  2000
 73
     1
 74
     3
 75
     0
 76
     0
 77
     0
 78
     0
281
     0
 65
     1
110
0.0
120
0.0
130
0.0
111
1.0
121
0.0
131
0.0
112
0.0
122
1.0
132
0.0
 79
     0
146
0.0
  0
ENDTAB
  0
TABLE
  2
LTYPE
  5
5
330
0
100
AcDbSymbolTable
 70
     6
  0
LTYPE
  5
14
330
5
100
AcDbSymbolTableRecord
100
AcDbLinetypeTableRecord
  2
ByBlock
 70
     0
  3

 72
    65
 73
     0
 40
0.0
  0
LTYPE
  5
15
330
5
100
AcDbSymbolTableRecord
100
AcDbLinetypeTableRecord
  2
ByLayer
 70
     0
  3

 72
    65
 73
     0
 40
0.0
  0
LTYPE
  5
16
330
5
100
AcDbSymbolTableRecord
100
AcDbLinetypeTableRecord
  2
Continuous
 70
     0
  3
Solid line
 72
    65
 73
     0
 40
0.0
  0
LTYPE
  5
3B
330
5
100
AcDbSymbolTableRecord
100
AcDbLinetypeTableRecord
  2
HIDDEN
 70
     0
  3
Hidden __ __ __ __ __ __ __ __ __ __ __ __ __ __
 72
    65
 73
     2
 40
1.905
 49
1.27
 74
     0
 49
-0.635
 74
     0
  0
LTYPE
  5
3C
330
5
100
AcDbSymbolTableRecord
100
AcDbLinetypeTableRecord
  2
PHANTOM
 70
     0
  3
Phantom ______  __  __  ______  __  __  ______
 72
    65
 73
     6
 40
12.7
 49
6.35
 74
     0
 49
-1.27
 74
     0
 49
1.27
 74
     0
 49
-1.27
 74
     0
 49
1.27
 74
     0
 49
-1.27
 74
     0
  0
LTYPE
  5
3D
330
5
100
AcDbSymbolTableRecord
100
AcDbLinetypeTableRecord
  2
CENTER
 70
     0
  3
Center ____ _ ____ _ ____ _ ____ _ ____ _ ____
 72
    65
 73
     4
 40
10.16
 49
6.35
 74
     0
 49
-1.27
 74
     0
 49
1.27
 74
     0
 49
-1.27
 74
     0
  0
LTYPE
  5
3E
330
5
100
AcDbSymbolTableRecord
100
AcDbLinetypeTableRecord
  2
CENTERX2
 70
     0
  3
Center (2x) ________  __  ________  __  _____
 72
    65
 73
     4
 40
20.32
 49
12.7
 74
     0
 49
-2.54
 74
     0
 49
2.54
 74
     0
 49
-2.54
 74
     0
  0
LTYPE
  5
3F
330
5
100
AcDbSymbolTableRecord
100
AcDbLinetypeTableRecord
  2
DOT2
 70
     0
  3
Dot (.5x) ........................................
 72
    65
 73
     2
 40
0.635
 49
0.0
 74
     0
 49
-0.635
 74
     0
  0
ENDTAB
  0
TABLE
  2
LAYER
  5
2
330
0
100
AcDbSymbolTable
 70
     1
  0
LAYER
  5
10
330
2
100
AcDbSymbolTableRecord
100
AcDbLayerTableRecord
  2
0
 70
     0
 62
     7
  6
Continuous
370
    -3
390
F
  0
ENDTAB
  0
TABLE
  2
STYLE
  5
3
330
0
100
AcDbSymbolTable
 70
     1
  0
STYLE
  5
11
330
3
100
AcDbSymbolTableRecord
100
AcDbTextStyleTableRecord
  2
STANDARD
 70
     0
 40
0.0
 41
1.0
 50
0.0
 71
     0
 42
2.5
  3
GOTHIC.TTF
  4

1001
ACAD
1000
CENTURY GOTHIC
1071
       34
  0
ENDTAB
  0
TABLE
  2
VIEW
  5
6
330
0
100
AcDbSymbolTable
 70
     0
  0
ENDTAB
  0
TABLE
  2
UCS
  5
7
330
0
100
AcDbSymbolTable
 70
     0
  0
ENDTAB
  0
TABLE
  2
APPID
  5
9
330
0
100
AcDbSymbolTable
 70
     1
  0
APPID
  5
12
330
9
100
AcDbSymbolTableRecord
100
AcDbRegAppTableRecord
  2
ACAD
 70
     0
  0
ENDTAB
  0
TABLE
  2
DIMSTYLE
  5
A
330
0
100
AcDbSymbolTable
 70
     1
100
AcDbDimStyleTable
  0
DIMSTYLE
105
27
330
A
100
AcDbSymbolTableRecord
100
AcDbDimStyleTableRecord
  2
ISO-25
 70
     0
 41
2.5
 42
0.625
 43
3.75
 44
1.25
 73
     0
 74
     0
 77
     1
 78
     8
140
2.5
141
2.5
143
0.0393700787
147
0.625
171
     3
172
     1
271
     2
272
     2
274
     3
278
    44
283
     0
284
     8
340
11
  0
ENDTAB
  0
TABLE
  2
BLOCK_RECORD
  5
1
330
0
100
AcDbSymbolTable
 70
     1
  0
BLOCK_RECORD
  5
1F
330
1
100
AcDbSymbolTableRecord
100
AcDbBlockTableRecord
  2
*Model_Space
340
22
  0
BLOCK_RECORD
  5
1B
330
1
100
AcDbSymbolTableRecord
100
AcDbBlockTableRecord
  2
*Paper_Space
340
1E
  0
BLOCK_RECORD
  5
23
330
1
100
AcDbSymbolTableRecord
100
AcDbBlockTableRecord
  2
*Paper_Space0
340
26
  0
ENDTAB
  0
ENDSEC
  0
SECTION
  2
BLOCKS
  0
BLOCK
  5
20
330
1F
100
AcDbEntity
  8
0
100
AcDbBlockBegin
  2
*Model_Space
 70
     0
 10
0.0
 20
0.0
 30
0.0
  3
*Model_Space
  1

  0
ENDBLK
  5
21
330
1F
100
AcDbEntity
  8
0
100
AcDbBlockEnd
  0
BLOCK
  5
1C
330
1B
100
AcDbEntity
 67
     1
  8
0
100
AcDbBlockBegin
  2
*Paper_Space
 70
     0
 10
0.0
 20
0.0
 30
0.0
  3
*Paper_Space
  1

  0
ENDBLK
  5
1D
330
1B
100
AcDbEntity
 67
     1
  8
0
100
AcDbBlockEnd
  0
BLOCK
  5
24
330
23
100
AcDbEntity
  8
0
100
AcDbBlockBegin
  2
*Paper_Space0
 70
     0
 10
0.0
 20
0.0
 30
0.0
  3
*Paper_Space0
  1

  0
ENDBLK
  5
25
330
23
100
AcDbEntity
  8
0
100
AcDbBlockEnd
  0
ENDSEC
  0
SECTION
  2
ENTITIES
  0
SPLINE
  5
40
330
1F
100
AcDbEntity
  8
0
  6
Continuous
 62
     7
370
    15
100
AcDbSpline
210
0.0
220
0.0
230
1.0
 70
     8
 71
     3
 72
    14
 73
    10
 74
     0
 42
0.00000001
 43
0.00000001
 40
0.0
 40
0.0
 40
0.0
 40
0.0
 40
0.0934449526613571
 40
0.3248510398131538
 40
0.525533696747531
 40
0.6919454435000625
 40
0.8206695053198106
 40
0.9217464585142344
 40
1.0
 40
1.0
 40
1.0
 40
1.0
 10
189.6258026631267
 20
131.598987635975
 30
0.0
 10
189.6145387864222
 20
131.5994156585761
 30
0.0
 10
189.5753811652177
 20
131.6009036317952
 30
0.0
 10
189.5126429477057
 20
131.5883023698586
 30
0.0
 10
189.4441019260055
 20
131.5664043158978
 30
0.0
 10
189.3906025655678
 20
131.5405073577691
 30
0.0
 10
189.3522104744313
 20
131.5169541865505
 30
0.0
 10
189.3288457393415
 20
131.5007174028195
 30
0.0
 10
189.316814934654
 20
131.491855055992
 30
0.0
 10
189.3115651132257
 20
131.4879878385042
 30
0.0
  0
LINE
  5
41
330
1F
100
AcDbEntity
  8
0
  6
Continuous
 62
     7
370
    15
100
AcDbLine
 10
189.6314893188
 20
134.5150224127
 30
0.0
 11
195.3480618344
 21
134.5150224127
 31
0.0
  0
LINE
  5
42
330
1F
100
AcDbEntity
  8
0
  6
Continuous
 62
     7
370
    15
100
AcDbLine
 10
195.3480618344
 20
131.6010600615
 30
0.0
 11
189.6314893188
 21
131.6010600615
 31
0.0
  0
SPLINE
  5
43
330
1F
100
AcDbEntity
  8
0
  6
Continuous
 62
     7
370
    15
100
AcDbSpline
210
0.0
220
0.0
230
1.0
 70
     8
 71
     3
 72
    12
 73
     8
 74
     0
 42
0.00000001
 43
0.00000001
 40
0.0
 40
0.0
 40
0.0
 40
0.0
 40
0.1670562949792295
 40
0.3244943430048574
 40
0.5448270187462068
 40
0.8440756651278315
 40
1.0
 40
1.0
 40
1.0
 40
1.0
 10
189.3115651132257
 20
134.6280946357225
 30
0.0
 10
189.3228085333661
 20
134.6198264387237
 30
0.0
 10
189.3446480350264
 20
134.6037660852166
 30
0.0
 10
189.3979447857879
 20
134.5708579508961
 30
0.0
 10
189.4724065287676
 20
134.5385119535323
 30
0.0
 10
189.5519229960521
 20
134.516275131132
 30
0.0
 10
189.6067923719614
 20
134.518261362649
 30
0.0
 10
189.6255884589346
 20
134.5189417673324
 30
0.0
  0
SPLINE
  5
44
330
1F
100
AcDbEntity
  8
0
  6
Continuous
 62
     7
370
    15
100
AcDbSpline
210
0.0
220
0.0
230
1.0
 70
     8
 71
     3
 72
    12
 73
     8
 74
     0
 42
0.00000001
 43
0.00000001
 40
0.0
 40
0.0
 40
0.0
 40
0.0
 40
0.167848857308642
 40
0.3260268088911996
 40
0.5474030232061778
 40
0.8480632661011883
 40
1.0
 40
1.0
 40
1.0
 40
1.0
 10
195.6679879026206
 20
131.4879878385042
 30
0.0
 10
195.6567436871519
 20
131.496255689595
 30
0.0
 10
195.6349031113714
 20
131.5123150250636
 30
0.0
 10
195.5816082980472
 20
131.5452279472653
 30
0.0
 10
195.5071445252207
 20
131.5775534436277
 30
0.0
 10
195.4281883660204
 20
131.5997195260413
 30
0.0
 10
195.3738888382494
 20
131.5977899714621
 30
0.0
 10
195.3556604953201
 20
131.5971422202934
 30
0.0
  0
SPLINE
  5
45
330
1F
100
AcDbEntity
  8
0
  6
Continuous
 62
     7
370
    15
100
AcDbSpline
210
0.0
220
0.0
230
1.0
 70
     8
 71
     3
 72
    12
 73
     8
 74
     0
 42
0.00000001
 43
0.00000001
 40
0.0
 40
0.0
 40
0.0
 40
0.0
 40
0.1678459750064151
 40
0.3260282373225634
 40
0.5474024321122727
 40
0.8480656356600268
 40
0.9999999999999999
 40
0.9999999999999999
 40
0.9999999999999999
 40
0.9999999999999999
 10
225.1679871501119
 20
131.4879878385042
 30
0.0
 10
225.1567437145159
 20
131.4962558320505
 30
0.0
 10
225.134904182834
 20
131.5123157903665
 30
0.0
 10
225.0816076753974
 20
131.5452271277152
 30
0.0
 10
225.0071444831563
 20
131.5775540476009
 30
0.0
 10
224.928188171101
 20
131.5997193938683
 30
0.0
 10
224.8738886924758
 20
131.5977899300471
 30
0.0
 10
224.855660674134
 20
131.5971422202934
 30
0.0
  0
SPLINE
  5
46
330
1F
100
AcDbEntity
  8
0
  6
Continuous
 62
     7
370
    15
100
AcDbSpline
210
0.0
220
0.0
230
1.0
 70
     8
 71
     3
 72
    14
 73
    10
 74
     0
 42
0.00000001
 43
0.00000001
 40
0.0
 40
0.0
 40
0.0
 40
0.0
 40
0.0892755132079187
 40
0.3217458861660423
 40
0.5233515253174391
 40
0.690528635082909
 40
0.8198447262378129
 40
0.9213865538353073
 40
0.9999999999999999
 40
0.9999999999999999
 40
0.9999999999999999
 40
0.9999999999999999
 10
224.8554036291034
 20
134.5170695761268
 30
0.0
 10
224.8661153191085
 20
134.5166707397362
 30
0.0
 10
224.9047198823214
 20
134.5152333470704
 30
0.0
 10
224.9669086129711
 20
134.5277974126459
 30
0.0
 10
225.0354504821933
 20
134.5496745900394
 30
0.0
 10
225.0889496707345
 20
134.5755757824037
 30
0.0
 10
225.1273417938399
 20
134.5991281661498
 30
0.0
 10
225.1507065231774
 20
134.6153650915738
 30
0.0
 10
225.1627373284349
 20
134.6242274243613
 30
0.0
 10
225.1679871501119
 20
134.6280946357225
 30
0.0
  0
SPLINE
  5
47
330
1F
100
AcDbEntity
  8
0
  6
Continuous
 62
     7
370
    15
100
AcDbSpline
210
0.0
220
0.0
230
1.0
 70
     8
 71
     3
 72
    14
 73
    10
 74
     0
 42
0.00000001
 43
0.00000001
 40
0.0
 40
0.0
 40
0.0
 40
0.0
 40
0.0892753724729093
 40
0.3217453789618976
 40
0.5233507002997025
 40
0.6905252514006012
 40
0.8198452019406064
 40
0.9213852091092969
 40
1.0
 40
1.0
 40
1.0
 40
1.0
 10
195.3554034502895
 20
134.5170695761268
 30
0.0
 10
195.366115142158
 20
134.5166707376328
 30
0.0
 10
195.4047197120866
 20
134.5152333373863
 30
0.0
 10
195.4669083355525
 20
134.5277975239493
 30
0.0
 10
195.5354503267166
 20
134.54967418485
 30
0.0
 10
195.5889486561755
 20
134.5755766279033
 30
0.0
 10
195.6273426226247
 20
134.5991274933748
 30
0.0
 10
195.6507061785514
 20
134.6153654272014
 30
0.0
 10
195.6627376754612
 20
134.6242274731624
 30
0.0
 10
195.6679879026206
 20
134.6280946357225
 30
0.0
  0
SPLINE
  5
48
330
1F
100
AcDbEntity
  8
0
  6
Continuous
 62
     7
370
    15
100
AcDbSpline
210
0.0
220
0.0
230
1.0
 70
     8
 71
     3
 72
    14
 73
    10
 74
     0
 42
0.00000001
 43
0.00000001
 40
0.0
 40
0.0
 40
0.0
 40
0.0
 40
0.0934448060279894
 40
0.3248505300584735
 40
0.5255328720825961
 40
0.6919420730855094
 40
0.8206699775505261
 40
0.92174511937982
 40
1.0
 40
1.0
 40
1.0
 40
1.0
 10
219.1258028419407
 20
131.598987635975
 30
0.0
 10
219.1145389632081
 20
131.5994156608652
 30
0.0
 10
219.0753813349534
 20
131.600903642042
 30
0.0
 10
219.0126432249869
 20
131.5883022587173
 30
0.0
 10
218.9441020815081
 20
131.5664047211137
 30
0.0
 10
218.8906035801207
 20
131.5405065122949
 30
0.0
 10
218.8522096456475
 20
131.5169548593248
 30
0.0
 10
218.8288460839674
 20
131.5007170671924
 30
0.0
 10
218.8168145876277
 20
131.4918550071911
 30
0.0
 10
218.8115643607171
 20
131.4879878385042
 30
0.0
  0
LINE
  5
49
330
1F
100
AcDbEntity
  8
0
  6
Continuous
 62
     7
370
    15
100
AcDbLine
 10
224.8480629446
 20
131.6010600615
 30
0.0
 11
219.1314904289
 21
131.6010600615
 31
0.0
  0
LINE
  5
4A
330
1F
100
AcDbEntity
  8
0
  6
Continuous
 62
     7
370
    15
100
AcDbLine
 10
219.1314904289
 20
134.5150224127
 30
0.0
 11
224.8480629446
 21
134.5150224127
 31
0.0
  0
SPLINE
  5
4B
330
1F
100
AcDbEntity
  8
0
  6
Continuous
 62
     7
370
    15
100
AcDbSpline
210
0.0
220
0.0
230
1.0
 70
     8
 71
     3
 72
    12
 73
     8
 74
     0
 42
0.00000001
 43
0.00000001
 40
0.0
 40
0.0
 40
0.0
 40
0.0
 40
0.1670591648735872
 40
0.3244929235330586
 40
0.5448276108186086
 40
0.844073312541621
 40
1.0
 40
1.0
 40
1.0
 40
1.0
 10
218.8115643607171
 20
134.6280946357225
 30
0.0
 10
218.8228085607256
 20
134.619826581169
 30
0.0
 10
218.8446491064768
 20
134.603766850498
 30
0.0
 10
218.8979441631843
 20
134.5708571313504
 30
0.0
 10
218.9724064863693
 20
134.5385125569308
 30
0.0
 10
219.0519227993678
 20
134.5162749957165
 30
0.0
 10
219.1067922255191
 20
134.518261319791
 30
0.0
 10
219.1255886377485
 20
134.5189417673324
 30
0.0
  0
LINE
  5
4C
330
1F
100
AcDbEntity
  8
0
  6
Continuous
 62
     7
370
    15
100
AcDbLine
 10
206.8653453702
 20
131.6010600615
 30
0.0
 11
205.2741809552
 21
131.6010600615
 31
0.0
  0
LINE
  5
4D
330
1F
100
AcDbEntity
  8
0
  6
Continuous
 62
     7
370
    15
100
AcDbLine
 10
209.2062409306
 20
131.6010600615
 30
0.0
 11
207.6546083358
 21
131.6010600615
 31
0.0
  0
LINE
  5
4E
330
1F
100
AcDbEntity
  8
0
  6
Continuous
 62
     7
370
    15
100
AcDbLine
 10
207.6546083358
 20
134.5150224127
 30
0.0
 11
209.2062409306
 21
134.5150224127
 31
0.0
  0
LINE
  5
4F
330
1F
100
AcDbEntity
  8
0
  6
Continuous
 62
     7
370
    15
100
AcDbLine
 10
205.2741809552
 20
134.5150224127
 30
0.0
 11
206.8653453702
 21
134.5150224127
 31
0.0
  0
SPLINE
  5
50
330
1F
100
AcDbEntity
  8
0
  6
Continuous
 62
     7
370
    15
100
AcDbSpline
210
0.0
220
0.0
230
1.0
 70
     8
 71
     3
 72
     9
 73
     5
 74
     0
 42
0.00000001
 43
0.00000001
 40
0.0
 40
0.0
 40
0.0
 40
0.0
 40
0.6175185715071649
 40
1.0
 40
1.0
 40
1.0
 40
1.0
 10
209.4322198340388
 20
131.568288100702
 30
0.0
 10
209.3866354109549
 20
131.5804581652763
 30
0.0
 10
209.3128167030047
 20
131.6001661791495
 30
0.0
 10
209.2360939826933
 20
131.5981885986677
 30
0.0
 10
209.2067489670308
 20
131.5974322108601
 30
0.0
  0
SPLINE
  5
51
330
1F
100
AcDbEntity
  8
0
  6
Continuous
 62
     7
370
    15
100
AcDbSpline
210
0.0
220
0.0
230
1.0
 70
     8
 71
     3
 72
     9
 73
     5
 74
     0
 42
0.00000001
 43
0.00000001
 40
0.0
 40
0.0
 40
0.0
 40
0.0
 40
0.5712550890700617
 40
1.0
 40
1.0
 40
1.0
 40
1.0
 10
209.2068102014901
 20
134.5163558337887
 30
0.0
 10
209.2506046947735
 20
134.5172589185977
 30
0.0
 10
209.3272683326498
 20
134.5188397969589
 30
0.0
 10
209.4010126016072
 20
134.5381461842332
 30
0.0
 10
209.4326300816329
 20
134.5464236995255
 30
0.0
  0
SPLINE
  5
52
330
1F
100
AcDbEntity
  8
0
  6
Continuous
 62
     7
370
    15
100
AcDbSpline
210
0.0
220
0.0
230
1.0
 70
     8
 71
     3
 72
     9
 73
     5
 74
     0
 42
0.00000001
 43
0.00000001
 40
0.0
 40
0.0
 40
0.0
 40
0.0
 40
0.3298325642436802
 40
1.0
 40
1.0
 40
1.0
 40
1.0
 10
205.2735686106326
 20
131.597952703764
 30
0.0
 10
205.2481621535651
 20
131.5985473102299
 30
0.0
 10
205.1711338069987
 20
131.6003500626877
 30
0.0
 10
205.0963477555482
 20
131.5835225448207
 30
0.0
 10
205.0462285792173
 20
131.5722452903216
 30
0.0
  0
SPLINE
  5
53
330
1F
100
AcDbEntity
  8
0
  6
Continuous
 62
     7
370
    15
100
AcDbSpline
210
0.0
220
0.0
230
1.0
 70
     8
 71
     3
 72
     9
 73
     5
 74
     0
 42
0.00000001
 43
0.00000001
 40
0.0
 40
0.0
 40
0.0
 40
0.0
 40
0.3141446223353159
 40
1.0
 40
1.0
 40
1.0
 40
1.0
 10
205.0465140295865
 20
134.5456746833448
 30
0.0
 10
205.0697922349731
 20
134.5395415989652
 30
0.0
 10
205.1438925178735
 20
134.5200184750804
 30
0.0
 10
205.2210329963447
 20
134.5174130721573
 30
0.0
 10
205.2739402083398
 20
134.5156261425515
 30
0.0
  0
SPLINE
  5
54
330
1F
100
AcDbEntity
  8
0
  6
Continuous
 62
     7
370
    15
100
AcDbSpline
210
0.0
220
0.0
230
1.0
 70
     8
 71
     3
 72
    12
 73
     8
 74
     0
 42
0.00000001
 43
0.00000001
 40
0.0
 40
0.0
 40
0.0
 40
0.0
 40
0.1337998573249378
 40
0.3905605218722568
 40
0.6476785925676246
 40
0.904122046457089
 40
1.0
 40
1.0
 40
1.0
 40
1.0
 10
210.1680617583634
 20
131.4923308285003
 30
0.0
 10
210.1322801138422
 20
131.4926413677441
 30
0.0
 10
210.0278338308861
 20
131.4935478288685
 30
0.0
 10
209.8566176227627
 20
131.5036613555234
 30
0.0
 10
209.6641120512665
 20
131.5258847120463
 30
0.0
 10
209.524639564211
 20
131.5508471983644
 30
0.0
 10
209.4529893974697
 20
131.5677510356384
 30
0.0
 10
209.4334910893531
 20
131.5723511118491
 30
0.0
  0
SPLINE
  5
55
330
1F
100
AcDbEntity
  8
0
  6
Continuous
 62
     7
370
    15
100
AcDbSpline
210
0.0
220
0.0
230
1.0
 70
     8
 71
     3
 72
    12
 73
     8
 74
     0
 42
0.00000001
 43
0.00000001
 40
0.0
 40
0.0
 40
0.0
 40
0.0
 40
0.1360269357350797
 40
0.3870492912525135
 40
0.6405994961190433
 40
0.8961365430703491
 40
1.0
 40
1.0
 40
1.0
 40
1.0
 10
209.4334910893531
 20
134.5437313623776
 30
0.0
 10
209.4613701872512
 20
134.5502120353526
 30
0.0
 10
209.540697013397
 20
134.5686520587806
 30
0.0
 10
209.6898747710344
 20
134.5937858408755
 30
0.0
 10
209.8814779834867
 20
134.6144497263442
 30
0.0
 10
210.0441866292938
 20
134.6229047881145
 30
0.0
 10
210.1402890408175
 20
134.6235617808404
 30
0.0
 10
210.1680617583634
 20
134.6237516457264
 30
0.0
  0
SPLINE
  5
56
330
1F
100
AcDbEntity
  8
0
  6
Continuous
 62
     7
370
    15
100
AcDbSpline
210
0.0
220
0.0
230
1.0
 70
     8
 71
     3
 72
    12
 73
     8
 74
     0
 42
0.00000001
 43
0.00000001
 40
0.0
 40
0.0
 40
0.0
 40
0.0
 40
0.1360269357350797
 40
0.3870492912525135
 40
0.6405994961190433
 40
0.8961365430703491
 40
1.0
 40
1.0
 40
1.0
 40
1.0
 10
205.0460611739846
 20
131.5723511118491
 30
0.0
 10
205.0181820760865
 20
131.5658704388741
 30
0.0
 10
204.9388552499406
 20
131.5474304154461
 30
0.0
 10
204.7896774923032
 20
131.5222966333512
 30
0.0
 10
204.5980742798509
 20
131.5016327478825
 30
0.0
 10
204.4353656340438
 20
131.4931776861122
 30
0.0
 10
204.3392632225201
 20
131.4925206933863
 30
0.0
 10
204.3114905049743
 20
131.4923308285003
 30
0.0
  0
SPLINE
  5
57
330
1F
100
AcDbEntity
  8
0
  6
Continuous
 62
     7
370
    15
100
AcDbSpline
210
0.0
220
0.0
230
1.0
 70
     8
 71
     3
 72
    12
 73
     8
 74
     0
 42
0.00000001
 43
0.00000001
 40
0.0
 40
0.0
 40
0.0
 40
0.0
 40
0.1337998573249378
 40
0.3905605218722568
 40
0.6476785925676246
 40
0.904122046457089
 40
1.0
 40
1.0
 40
1.0
 40
1.0
 10
204.3114905049743
 20
134.6237516457264
 30
0.0
 10
204.3472721494955
 20
134.6234411064826
 30
0.0
 10
204.4517184324515
 20
134.6225346453581
 30
0.0
 10
204.622934640575
 20
134.6124211187033
 30
0.0
 10
204.8154402120711
 20
134.5901977621804
 30
0.0
 10
204.9549126991266
 20
134.5652352758623
 30
0.0
 10
205.026562865868
 20
134.5483314385883
 30
0.0
 10
205.0460611739846
 20
134.5437313623776
 30
0.0
  0
LINE
  5
58
330
1F
100
AcDbEntity
  8
0
  6
Continuous
 62
     7
370
    15
100
AcDbLine
 10
204.2328971242
 20
134.6237516457
 30
0.0
 11
204.311490505
 21
134.6237516457
 31
0.0
  0
LINE
  5
59
330
1F
100
AcDbEntity
  8
0
  6
Continuous
 62
     7
370
    15
100
AcDbLine
 10
204.311490505
 20
131.4923308285
 30
0.0
 11
204.2328971242
 21
131.4923308285
 31
0.0
  0
ARC
  5
5A
330
1F
100
AcDbEntity
  8
0
  6
Continuous
 62
     7
370
    15
100
AcDbCircle
 10
204.2328970454
 20
130.9923307933
 30
0.0
 40
0.5000000000000011
100
AcDbArc
 50
90.0
 51
126.6271599368
  0
ARC
  5
5B
330
1F
100
AcDbEntity
  8
0
  6
Continuous
 62
     7
370
    15
100
AcDbCircle
 10
204.2328970454
 20
135.1237516809
 30
0.0
 40
0.5000000000000011
100
AcDbArc
 50
233.3728400632
 51
270.0
  0
LINE
  5
5C
330
1F
100
AcDbEntity
  8
0
  6
Continuous
 62
     7
370
    15
100
AcDbLine
 10
210.1680617584
 20
134.6237516457
 30
0.0
 11
210.2466551391
 21
134.6237516457
 31
0.0
  0
ARC
  5
5D
330
1F
100
AcDbEntity
  8
0
  6
Continuous
 62
     7
370
    15
100
AcDbCircle
 10
210.246655218
 20
130.9923307933
 30
0.0
 40
0.5
100
AcDbArc
 50
53.3728400632
 51
90.0
  0
ARC
  5
5E
330
1F
100
AcDbEntity
  8
0
  6
Continuous
 62
     7
370
    15
100
AcDbCircle
 10
210.246655218
 20
135.1237516809
 30
0.0
 40
0.5
100
AcDbArc
 50
270.0
 51
306.6271599368
  0
LINE
  5
5F
330
1F
100
AcDbEntity
  8
0
  6
Continuous
 62
     7
370
    15
100
AcDbLine
 10
210.2466551391
 20
131.4923308285
 30
0.0
 11
210.1680617584
 21
131.4923308285
 31
0.0
  0
LINE
  5
60
330
1F
100
AcDbEntity
  8
0
  6
Continuous
 62
     7
370
    15
100
AcDbLine
 10
196.3216748358
 20
131.0020360591
 30
0.0
 11
195.6679879026
 21
131.4879878385
 31
0.0
  0
LINE
  5
61
330
1F
100
AcDbEntity
  8
0
  6
Continuous
 62
     7
370
    15
100
AcDbLine
 10
225.1679871501
 20
134.6280946357
 30
0.0
 11
225.8216750147
 21
135.1140464151
 31
0.0
  0
LINE
  5
62
330
1F
100
AcDbEntity
  8
0
  6
Continuous
 62
     7
370
    15
100
AcDbLine
 10
195.6679879026
 20
134.6280946357
 30
0.0
 11
196.3216748358
 21
135.1140464151
 31
0.0
  0
LINE
  5
63
330
1F
100
AcDbEntity
  8
0
  6
Continuous
 62
     7
370
    15
100
AcDbLine
 10
225.8216750147
 20
131.0020360591
 30
0.0
 11
225.1679871501
 21
131.4879878385
 31
0.0
  0
LINE
  5
64
330
1F
100
AcDbEntity
  8
0
  6
Continuous
 62
     7
370
    15
100
AcDbLine
 10
189.3115651132
 20
131.4879878385
 30
0.0
 11
188.6578772487
 21
131.0020360591
 31
0.0
  0
LINE
  5
65
330
1F
100
AcDbEntity
  8
0
  6
Continuous
 62
     7
370
    15
100
AcDbLine
 10
218.1578774275
 20
135.1140464151
 30
0.0
 11
218.8115643607
 21
134.6280946357
 31
0.0
  0
LINE
  5
66
330
1F
100
AcDbEntity
  8
0
  6
Continuous
 62
     7
370
    15
100
AcDbLine
 10
218.8115643607
 20
131.4879878385
 30
0.0
 11
218.1578774275
 21
131.0020360591
 31
0.0
  0
LINE
  5
67
330
1F
100
AcDbEntity
  8
0
  6
Continuous
 62
     7
370
    15
100
AcDbLine
 10
188.6578772487
 20
135.1140464151
 30
0.0
 11
189.3115651132
 21
134.6280946357
 31
0.0
  0
LINE
  5
68
330
1F
100
AcDbEntity
  8
0
  6
Continuous
 62
     7
370
    15
100
AcDbLine
 10
211.0716749252
 20
131.0020360591
 30
0.0
 11
210.5449579926
 21
131.3935981792
 31
0.0
  0
LINE
  5
69
330
1F
100
AcDbEntity
  8
0
  6
Continuous
 62
     7
370
    15
100
AcDbLine
 10
210.5449579926
 20
134.7224842951
 30
0.0
 11
211.0716749252
 21
135.1140464151
 31
0.0
  0
LINE
  5
6A
330
1F
100
AcDbEntity
  8
0
  6
Continuous
 62
     7
370
    15
100
AcDbLine
 10
203.9345942707
 20
131.3935981792
 30
0.0
 11
203.4078773381
 21
131.0020360591
 31
0.0
  0
LINE
  5
6B
330
1F
100
AcDbEntity
  8
0
  6
Continuous
 62
     7
370
    15
100
AcDbLine
 10
203.4078773381
 20
135.1140464151
 30
0.0
 11
203.9345942707
 21
134.7224842951
 31
0.0
  0
LINE
  5
6C
330
1F
100
AcDbEntity
  8
0
  6
Continuous
 62
     7
370
    15
100
AcDbLine
 10
218.0843998017
 20
135.1593380289
 30
0.0
 11
218.1578802215
 21
135.1140440868
 31
0.0
  0
LINE
  5
6D
330
1F
100
AcDbEntity
  8
0
  6
Continuous
 62
     7
370
    15
100
AcDbLine
 10
218.1578802215
 20
131.0020383874
 30
0.0
 11
218.0843998017
 21
130.9567444453
 31
0.0
  0
LINE
  5
6E
330
1F
100
AcDbEntity
  8
0
  6
Continuous
 62
     7
370
    15
100
AcDbLine
 10
196.3951524617
 20
130.9567444453
 30
0.0
 11
196.3216720419
 21
131.0020383874
 31
0.0
  0
LINE
  5
6F
330
1F
100
AcDbEntity
  8
0
  6
Continuous
 62
     7
370
    15
100
AcDbLine
 10
196.3216720419
 20
135.1140440868
 30
0.0
 11
196.3951524617
 21
135.1593380289
 31
0.0
  0
LINE
  5
70
330
1F
100
AcDbEntity
  8
0
  6
Continuous
 62
     7
370
    15
100
AcDbLine
 10
203.4078803649
 20
131.0020383874
 30
0.0
 11
203.3343999451
 21
130.9567444453
 31
0.0
  0
LINE
  5
71
330
1F
100
AcDbEntity
  8
0
  6
Continuous
 62
     7
370
    15
100
AcDbLine
 10
203.3343999451
 20
135.1593380289
 30
0.0
 11
203.4078803649
 21
135.1140440868
 31
0.0
  0
LINE
  5
72
330
1F
100
AcDbEntity
  8
0
  6
Continuous
 62
     7
370
    15
100
AcDbLine
 10
188.5843996228
 20
135.1593380289
 30
0.0
 11
188.657880974
 21
135.1140440868
 31
0.0
  0
LINE
  5
73
330
1F
100
AcDbEntity
  8
0
  6
Continuous
 62
     7
370
    15
100
AcDbLine
 10
188.657880974
 20
131.0020383874
 30
0.0
 11
188.5843996228
 21
130.9567444453
 31
0.0
  0
LINE
  5
74
330
1F
100
AcDbEntity
  8
0
  6
Continuous
 62
     7
370
    15
100
AcDbLine
 10
225.8951526405
 20
130.9567444453
 30
0.0
 11
225.8216712894
 21
131.0020383874
 31
0.0
  0
LINE
  5
75
330
1F
100
AcDbEntity
  8
0
  6
Continuous
 62
     7
370
    15
100
AcDbLine
 10
225.8216712894
 20
135.1140440868
 30
0.0
 11
225.8951526405
 21
135.1593380289
 31
0.0
  0
LINE
  5
76
330
1F
100
AcDbEntity
  8
0
  6
Continuous
 62
     7
370
    15
100
AcDbLine
 10
211.1451523183
 20
130.9567444453
 30
0.0
 11
211.0716718984
 21
131.0020383874
 31
0.0
  0
LINE
  5
77
330
1F
100
AcDbEntity
  8
0
  6
Continuous
 62
     7
370
    15
100
AcDbLine
 10
211.0716718984
 20
135.1140440868
 30
0.0
 11
211.1451523183
 21
135.1593380289
 31
0.0
  0
SPLINE
  5
78
330
1F
100
AcDbEntity
  8
0
  6
Continuous
 62
     7
370
    15
100
AcDbSpline
210
0.0
220
0.0
230
1.0
 70
     8
 71
     3
 72
    10
 73
     6
 74
     0
 42
0.00000001
 43
0.00000001
 40
0.0
 40
0.0
 40
0.0
 40
0.0
 40
0.2435357286073433
 40
0.7524124294621736
 40
1.0
 40
1.0
 40
1.0
 40
1.0
 10
218.0452246488722
 20
135.1757483983462
 30
0.0
 10
218.0457904800092
 20
135.1755788244868
 30
0.0
 10
218.0475386357436
 20
135.1750549199236
 30
0.0
 10
218.0653080376625
 20
135.168837929921
 30
0.0
 10
218.0799277543334
 20
135.1612620489455
 30
0.0
 10
218.0847127260359
 20
135.1587824950044
 30
0.0
  0
SPLINE
  5
79
330
1F
100
AcDbEntity
  8
0
  6
Continuous
 62
     7
370
    15
100
AcDbSpline
210
0.0
220
0.0
230
1.0
 70
     8
 71
     3
 72
    10
 73
     6
 74
     0
 42
0.00000001
 43
0.00000001
 40
0.0
 40
0.0
 40
0.0
 40
0.0
 40
0.2275905970352976
 40
0.8137473080229071
 40
1.0
 40
1.0
 40
1.0
 40
1.0
 10
218.0833231927545
 20
130.9566021857833
 30
0.0
 10
218.0790739026348
 20
130.954393469085
 30
0.0
 10
218.0638806194282
 20
130.9464962303995
 30
0.0
 10
218.0445795656084
 20
130.9401825979228
 30
0.0
 10
218.0468499595963
 20
130.9407873290479
 30
0.0
 10
218.0473974244387
 20
130.9409331491266
 30
0.0
  0
SPLINE
  5
7A
330
1F
100
AcDbEntity
  8
0
  6
Continuous
 62
     7
370
    15
100
AcDbSpline
210
0.0
220
0.0
230
1.0
 70
     8
 71
     3
 72
    10
 73
     6
 74
     0
 42
0.00000001
 43
0.00000001
 40
0.0
 40
0.0
 40
0.0
 40
0.0
 40
0.2275894814369639
 40
0.813747188529019
 40
1.0
 40
1.0
 40
1.0
 40
1.0
 10
225.8962292493971
 20
135.1594802884434
 30
0.0
 10
225.9004781331821
 20
135.1616890066102
 30
0.0
 10
225.9156700357809
 20
135.1695862880977
 30
0.0
 10
225.9349739213897
 20
135.1758998726346
 30
0.0
 10
225.9327019348164
 20
135.1752951443716
 30
0.0
 10
225.9321540863903
 20
135.1751493251001
 30
0.0
  0
SPLINE
  5
7B
330
1F
100
AcDbEntity
  8
0
  6
Continuous
 62
     7
370
    15
100
AcDbSpline
210
0.0
220
0.0
230
1.0
 70
     8
 71
     3
 72
    10
 73
     6
 74
     0
 42
0.00000001
 43
0.00000001
 40
0.0
 40
0.0
 40
0.0
 40
0.0
 40
0.2435357286073433
 40
0.7524124294621736
 40
1.0
 40
1.0
 40
1.0
 40
1.0
 10
225.9343277932794
 20
130.9403340758805
 30
0.0
 10
225.9337619621424
 20
130.9405036497399
 30
0.0
 10
225.932013806408
 20
130.9410275543031
 30
0.0
 10
225.9142444044891
 20
130.9472445443057
 30
0.0
 10
225.8996246878181
 20
130.9548204252812
 30
0.0
 10
225.8948397161157
 20
130.9572999792223
 30
0.0
  0
SPLINE
  5
7C
330
1F
100
AcDbEntity
  8
0
  6
Continuous
 62
     7
370
    15
100
AcDbSpline
210
0.0
220
0.0
230
1.0
 70
     8
 71
     3
 72
    10
 73
     6
 74
     0
 42
0.00000001
 43
0.00000001
 40
0.0
 40
0.0
 40
0.0
 40
0.0
 40
0.2435353015301148
 40
0.7524120472904723
 40
1.0
 40
1.0
 40
1.0
 40
1.0
 10
211.1843272382112
 20
130.9403340758805
 30
0.0
 10
211.1837617818288
 20
130.9405036500555
 30
0.0
 10
211.1820147817362
 20
130.9410275562464
 30
0.0
 10
211.1642444205291
 20
130.947244553314
 30
0.0
 10
211.1496242771081
 20
130.9548204256737
 30
0.0
 10
211.1448391610475
 20
130.9572999792223
 30
0.0
  0
SPLINE
  5
7D
330
1F
100
AcDbEntity
  8
0
  6
Continuous
 62
     7
370
    15
100
AcDbSpline
210
0.0
220
0.0
230
1.0
 70
     8
 71
     3
 72
    10
 73
     6
 74
     0
 42
0.00000001
 43
0.00000001
 40
0.0
 40
0.0
 40
0.0
 40
0.0
 40
0.2275894814369639
 40
0.813747188529019
 40
1.0
 40
1.0
 40
1.0
 40
1.0
 10
188.5833230139406
 20
130.9566021857833
 30
0.0
 10
188.5790741301555
 20
130.9543934676165
 30
0.0
 10
188.5638822275568
 20
130.946496186129
 30
0.0
 10
188.5445783419479
 20
130.9401826015921
 30
0.0
 10
188.5468503285213
 20
130.9407873298551
 30
0.0
 10
188.5473981769474
 20
130.9409331491266
 30
0.0
  0
SPLINE
  5
7E
330
1F
100
AcDbEntity
  8
0
  6
Continuous
 62
     7
370
    15
100
AcDbSpline
210
0.0
220
0.0
230
1.0
 70
     8
 71
     3
 72
    10
 73
     6
 74
     0
 42
0.00000001
 43
0.00000001
 40
0.0
 40
0.0
 40
0.0
 40
0.0
 40
0.2435357286073433
 40
0.7524124294621736
 40
1.0
 40
1.0
 40
1.0
 40
1.0
 10
188.5452244700582
 20
135.1757483983462
 30
0.0
 10
188.5457903011953
 20
135.1755788244868
 30
0.0
 10
188.5475384569297
 20
135.1750549199236
 30
0.0
 10
188.5653078588485
 20
135.168837929921
 30
0.0
 10
188.5799275755195
 20
135.1612620489455
 30
0.0
 10
188.5847125472219
 20
135.1587824950044
 30
0.0
  0
SPLINE
  5
7F
330
1F
100
AcDbEntity
  8
0
  6
Continuous
 62
     7
370
    15
100
AcDbSpline
210
0.0
220
0.0
230
1.0
 70
     8
 71
     3
 72
    10
 73
     6
 74
     0
 42
0.00000001
 43
0.00000001
 40
0.0
 40
0.0
 40
0.0
 40
0.0
 40
0.2275906052434826
 40
0.8137473373711689
 40
1.0
 40
1.0
 40
1.0
 40
1.0
 10
211.1462286943288
 20
135.1594802884434
 30
0.0
 10
211.1504779960927
 20
135.161689005138
 30
0.0
 10
211.1656713209331
 20
135.1695862438104
 30
0.0
 10
211.1849718764213
 20
135.1758998762161
 30
0.0
 10
211.1827022161462
 20
135.1752951451445
 30
0.0
 10
211.1821549283059
 20
135.1751493251001
 30
0.0
  0
SPLINE
  5
80
330
1F
100
AcDbEntity
  8
0
  6
Continuous
 62
     7
370
    15
100
AcDbSpline
210
0.0
220
0.0
230
1.0
 70
     8
 71
     3
 72
    10
 73
     6
 74
     0
 42
0.00000001
 43
0.00000001
 40
0.0
 40
0.0
 40
0.0
 40
0.0
 40
0.2275905970352976
 40
0.8137473080229071
 40
1.0
 40
1.0
 40
1.0
 40
1.0
 10
196.3962290705831
 20
135.1594802884434
 30
0.0
 10
196.4004783607028
 20
135.1616890051417
 30
0.0
 10
196.4156716439094
 20
135.1695862438272
 30
0.0
 10
196.4349726977293
 20
135.1758998763039
 30
0.0
 10
196.4327023037414
 20
135.1752951451788
 30
0.0
 10
196.4321548388989
 20
135.1751493251001
 30
0.0
  0
SPLINE
  5
81
330
1F
100
AcDbEntity
  8
0
  6
Continuous
 62
     7
370
    15
100
AcDbSpline
210
0.0
220
0.0
230
1.0
 70
     8
 71
     3
 72
    10
 73
     6
 74
     0
 42
0.00000001
 43
0.00000001
 40
0.0
 40
0.0
 40
0.0
 40
0.0
 40
0.2435357286073433
 40
0.7524124294621736
 40
1.0
 40
1.0
 40
1.0
 40
1.0
 10
196.4343276144655
 20
130.9403340758805
 30
0.0
 10
196.4337617833284
 20
130.9405036497399
 30
0.0
 10
196.432013627594
 20
130.9410275543031
 30
0.0
 10
196.4142442256752
 20
130.9472445443057
 30
0.0
 10
196.3996245090042
 20
130.9548204252812
 30
0.0
 10
196.3948395373018
 20
130.9572999792223
 30
0.0
  0
SPLINE
  5
82
330
1F
100
AcDbEntity
  8
0
  6
Continuous
 62
     7
370
    15
100
AcDbSpline
210
0.0
220
0.0
230
1.0
 70
     8
 71
     3
 72
    10
 73
     6
 74
     0
 42
0.00000001
 43
0.00000001
 40
0.0
 40
0.0
 40
0.0
 40
0.0
 40
0.2275906052434826
 40
0.8137473373711689
 40
1.0
 40
1.0
 40
1.0
 40
1.0
 10
203.3333235690089
 20
130.9566021857833
 30
0.0
 10
203.3290742672449
 20
130.9543934690887
 30
0.0
 10
203.3138809424046
 20
130.9464962304163
 30
0.0
 10
203.2945803869163
 20
130.9401825980106
 30
0.0
 10
203.2968500471914
 20
130.9407873290822
 30
0.0
 10
203.2973973350318
 20
130.9409331491266
 30
0.0
  0
SPLINE
  5
83
330
1F
100
AcDbEntity
  8
0
  6
Continuous
 62
     7
370
    15
100
AcDbSpline
210
0.0
220
0.0
230
1.0
 70
     8
 71
     3
 72
    10
 73
     6
 74
     0
 42
0.00000001
 43
0.00000001
 40
0.0
 40
0.0
 40
0.0
 40
0.0
 40
0.2435353015301148
 40
0.7524120472904723
 40
1.0
 40
1.0
 40
1.0
 40
1.0
 10
203.2952250251265
 20
135.1757483983462
 30
0.0
 10
203.2957904815088
 20
135.1755788241712
 30
0.0
 10
203.2975374816014
 20
135.1750549179803
 30
0.0
 10
203.3153078428086
 20
135.1688379209127
 30
0.0
 10
203.3299279862296
 20
135.161262048553
 30
0.0
 10
203.3347131022902
 20
135.1587824950044
 30
0.0
  0
LINE
  5
84
330
1F
100
AcDbEntity
  8
0
  6
Continuous
 62
     7
370
    15
100
AcDbLine
 10
189.3115651132
 20
131.4879878385
 30
0.0
 11
189.2886694791
 21
131.4695093509
 31
0.0
  0
LINE
  5
85
330
1F
100
AcDbEntity
  8
0
  6
Continuous
 62
     7
370
    15
100
AcDbLine
 10
189.3115651132
 20
134.6280946357
 30
0.0
 11
189.2886694791
 21
134.6465731233
 31
0.0
  0
LINE
  5
86
330
1F
100
AcDbEntity
  8
0
  6
Continuous
 62
     7
370
    15
100
AcDbLine
 10
225.1679871501
 20
134.6280946357
 30
0.0
 11
225.1908827843
 21
134.6465731233
 31
0.0
  0
LINE
  5
87
330
1F
100
AcDbEntity
  8
0
  6
Continuous
 62
     7
370
    15
100
AcDbLine
 10
195.6679879026
 20
134.6280946357
 30
0.0
 11
195.6908835368
 21
134.6465731233
 31
0.0
  0
LINE
  5
88
330
1F
100
AcDbEntity
  8
0
  6
Continuous
 62
     7
370
    15
100
AcDbLine
 10
218.8115643607
 20
131.4879878385
 30
0.0
 11
218.7886687265
 21
131.4695093509
 31
0.0
  0
LINE
  5
89
330
1F
100
AcDbEntity
  8
0
  6
Continuous
 62
     7
370
    15
100
AcDbLine
 10
218.8115643607
 20
134.6280946357
 30
0.0
 11
218.7886687265
 21
134.6465731233
 31
0.0
  0
SPLINE
  5
8A
330
1F
100
AcDbEntity
  8
0
  6
Continuous
 62
     7
370
    15
100
AcDbSpline
210
0.0
220
0.0
230
1.0
 70
     8
 71
     3
 72
    11
 73
     7
 74
     0
 42
0.00000001
 43
0.00000001
 40
0.0
 40
0.0
 40
0.0
 40
0.0
 40
0.280185540507802
 40
0.4766876093971389
 40
0.9463379601538517
 40
1.0
 40
1.0
 40
1.0
 40
1.0
 10
206.8653453702291
 20
131.598408120503
 30
0.0
 10
206.9361574085191
 20
131.598364535134
 30
0.0
 10
207.0566319383175
 20
131.5982903821092
 30
0.0
 10
207.3137313078107
 20
131.5944359304182
 30
0.0
 10
207.5124341100925
 20
131.6022790392624
 30
0.0
 10
207.641385290599
 20
131.6005863643633
 30
0.0
 10
207.6546083357835
 20
131.6004127923449
 30
0.0
  0
SPLINE
  5
8B
330
1F
100
AcDbEntity
  8
0
  6
Continuous
 62
     7
370
    15
100
AcDbSpline
210
0.0
220
0.0
230
1.0
 70
     8
 71
     3
 72
    11
 73
     7
 74
     0
 42
0.00000001
 43
0.00000001
 40
0.0
 40
0.0
 40
0.0
 40
0.0
 40
0.280185540507802
 40
0.4766876093971389
 40
0.9463379601538517
 40
1.0
 40
1.0
 40
1.0
 40
1.0
 10
206.8653453702291
 20
134.5176743537237
 30
0.0
 10
206.9361574085191
 20
134.5177179390927
 30
0.0
 10
207.0566319383175
 20
134.5177920921175
 30
0.0
 10
207.3137313078107
 20
134.5216465438085
 30
0.0
 10
207.5124341100925
 20
134.5138034349642
 30
0.0
 10
207.641385290599
 20
134.5154961098634
 30
0.0
 10
207.6546083357835
 20
134.5156696818818
 30
0.0
  0
SPLINE
  5
8C
330
1F
100
AcDbEntity
  8
0
  6
Continuous
 62
     7
370
    15
100
AcDbSpline
210
0.0
220
0.0
230
1.0
 70
     8
 71
     3
 72
    12
 73
     8
 74
     0
 42
0.00000001
 43
0.00000001
 40
0.0
 40
0.0
 40
0.0
 40
0.0
 40
0.25
 40
0.25
 40
0.5
 40
0.5
 40
1.0
 40
1.0
 40
1.0
 40
1.0
 10
180.7397761316688
 20
136.5825653305055
 30
0.0
 10
181.5458750791481
 20
136.5871526351646
 30
0.0
 10
182.3655905736421
 20
136.5915450271332
 30
0.0
 10
184.0362484268946
 20
136.5998828172675
 30
0.0
 10
184.8850842995437
 20
136.6038307836508
 30
0.0
 10
187.4699260222837
 20
136.6150052374726
 30
0.0
 10
189.243825793093
 20
136.6215603522453
 30
0.0
 10
191.0580176090673
 20
136.6271721966864
 30
0.0
  0
SPLINE
  5
8D
330
1F
100
AcDbEntity
  8
0
  6
Continuous
 62
     7
370
    15
100
AcDbSpline
210
0.0
220
0.0
230
1.0
 70
     8
 71
     3
 72
     8
 73
     4
 74
     0
 42
0.00000001
 43
0.00000001
 40
0.0
 40
0.0
 40
0.0
 40
0.0
 40
1.0
 40
1.0
 40
1.0
 40
1.0
 10
191.0580176031146
 20
136.6271721968329
 30
0.0
 10
191.9601549399946
 20
136.6299667441462
 30
0.0
 10
192.9141844155314
 20
136.6313990665385
 30
0.0
 10
193.8714679124153
 20
136.631396148418
 30
0.0
  0
LINE
  5
8E
330
1F
100
AcDbEntity
  8
0
  6
Continuous
 62
     7
370
    15
100
AcDbLine
 10
193.8714675875
 20
136.6313960364
 30
0.0
 11
220.6080846758
 21
136.6313960364
 31
0.0
  0
SPLINE
  5
8F
330
1F
100
AcDbEntity
  8
0
  6
Continuous
 62
     7
370
    15
100
AcDbSpline
210
0.0
220
0.0
230
1.0
 70
     8
 71
     3
 72
     8
 73
     4
 74
     0
 42
0.00000001
 43
0.00000001
 40
0.0
 40
0.0
 40
0.0
 40
0.0
 40
1.0
 40
1.0
 40
1.0
 40
1.0
 10
220.6080843509223
 20
136.631396148418
 30
0.0
 10
221.5654001515979
 20
136.631399066637
 30
0.0
 10
222.5194531022434
 20
136.6299665713601
 30
0.0
 10
223.4216097543126
 20
136.6271719642142
 30
0.0
  0
SPLINE
  5
90
330
1F
100
AcDbEntity
  8
0
  6
Continuous
 62
     7
370
    15
100
AcDbSpline
210
0.0
220
0.0
230
1.0
 70
     8
 71
     3
 72
    12
 73
     8
 74
     0
 42
0.00000001
 43
0.00000001
 40
0.0
 40
0.0
 40
0.0
 40
0.0
 40
0.5
 40
0.5
 40
0.75
 40
0.75
 40
1.0
 40
1.0
 40
1.0
 40
1.0
 10
223.4216097602728
 20
136.6271719643607
 30
0.0
 10
225.2357891679166
 20
136.6215601583025
 30
0.0
 10
227.0096746085646
 20
136.6150050437815
 30
0.0
 10
229.5944973844496
 20
136.6038306487604
 30
0.0
 10
230.4433271194536
 20
136.5998827050545
 30
0.0
 10
232.113973027075
 20
136.5915449665654
 30
0.0
 10
232.9336827557813
 20
136.5871526034581
 30
0.0
 10
233.7397761316688
 20
136.5825653305055
 30
0.0
  0
SPLINE
  5
91
330
1F
100
AcDbEntity
  8
0
  6
Continuous
 62
     7
370
    15
100
AcDbSpline
210
0.0
220
0.0
230
1.0
 70
     8
 71
     3
 72
    12
 73
     8
 74
     0
 42
0.00000001
 43
0.00000001
 40
0.0
 40
0.0
 40
0.0
 40
0.0
 40
0.5
 40
0.5
 40
0.75
 40
0.75
 40
1.0
 40
1.0
 40
1.0
 40
1.0
 10
223.4216097602728
 20
129.4889105098659
 30
0.0
 10
225.2357891679166
 20
129.4945223159242
 30
0.0
 10
227.0096746085646
 20
129.5010774304452
 30
0.0
 10
229.5944973844496
 20
129.5122518254663
 30
0.0
 10
230.4433271194536
 20
129.5161997691722
 30
0.0
 10
232.113973027075
 20
129.5245375076613
 30
0.0
 10
232.9336827557813
 20
129.5289298707686
 30
0.0
 10
233.7397761316688
 20
129.5335171437212
 30
0.0
  0
SPLINE
  5
92
330
1F
100
AcDbEntity
  8
0
  6
Continuous
 62
     7
370
    15
100
AcDbSpline
210
0.0
220
0.0
230
1.0
 70
     8
 71
     3
 72
     8
 73
     4
 74
     0
 42
0.00000001
 43
0.00000001
 40
0.0
 40
0.0
 40
0.0
 40
0.0
 40
1.0
 40
1.0
 40
1.0
 40
1.0
 10
220.6080843509223
 20
129.4846863258087
 30
0.0
 10
221.5654001515979
 20
129.4846834075897
 30
0.0
 10
222.5194531022434
 20
129.4861159028666
 30
0.0
 10
223.4216097543126
 20
129.4889105100125
 30
0.0
  0
LINE
  5
93
330
1F
100
AcDbEntity
  8
0
  6
Continuous
 62
     7
370
    15
100
AcDbLine
 10
193.8714675875
 20
129.4846864378
 30
0.0
 11
220.6080846758
 21
129.4846864378
 31
0.0
  0
SPLINE
  5
94
330
1F
100
AcDbEntity
  8
0
  6
Continuous
 62
     7
370
    15
100
AcDbSpline
210
0.0
220
0.0
230
1.0
 70
     8
 71
     3
 72
     8
 73
     4
 74
     0
 42
0.00000001
 43
0.00000001
 40
0.0
 40
0.0
 40
0.0
 40
0.0
 40
1.0
 40
1.0
 40
1.0
 40
1.0
 10
191.0580176031146
 20
129.4889102773938
 30
0.0
 10
191.9601549399946
 20
129.4861157300805
 30
0.0
 10
192.9141844155314
 20
129.4846834076882
 30
0.0
 10
193.8714679124153
 20
129.4846863258087
 30
0.0
  0
SPLINE
  5
95
330
1F
100
AcDbEntity
  8
0
  6
Continuous
 62
     7
370
    15
100
AcDbSpline
210
0.0
220
0.0
230
1.0
 70
     8
 71
     3
 72
    12
 73
     8
 74
     0
 42
0.00000001
 43
0.00000001
 40
0.0
 40
0.0
 40
0.0
 40
0.0
 40
0.25
 40
0.25
 40
0.5
 40
0.5
 40
1.0
 40
1.0
 40
1.0
 40
1.0
 10
180.7397761316688
 20
129.5335171437212
 30
0.0
 10
181.5458750791481
 20
129.5289298390621
 30
0.0
 10
182.3655905736421
 20
129.5245374470935
 30
0.0
 10
184.0362484268946
 20
129.5161996569591
 30
0.0
 10
184.8850842995437
 20
129.5122516905759
 30
0.0
 10
187.4699260222837
 20
129.5010772367541
 30
0.0
 10
189.243825793093
 20
129.4945221219814
 30
0.0
 10
191.0580176090673
 20
129.4889102775403
 30
0.0
  0
SPLINE
  5
96
330
1F
100
AcDbEntity
  8
0
  6
Continuous
 62
     7
370
    15
100
AcDbSpline
210
0.0
220
0.0
230
1.0
 70
     8
 71
     3
 72
     8
 73
     4
 74
     0
 42
0.00000001
 43
0.00000001
 40
0.0
 40
0.0
 40
0.0
 40
0.0
 40
1.0
 40
1.0
 40
1.0
 40
1.0
 10
177.2268786405035
 20
133.0709624918901
 30
0.0
 10
177.2268628317564
 20
133.06665542628
 30
0.0
 10
177.2268549441777
 20
133.0623483316577
 30
0.0
 10
177.2268549778203
 20
133.0580412371591
 30
0.0
  0
SPLINE
  5
97
330
1F
100
AcDbEntity
  8
0
  6
Continuous
 62
     7
370
    15
100
AcDbSpline
210
0.0
220
0.0
230
1.0
 70
     8
 71
     3
 72
    22
 73
    18
 74
     0
 42
0.00000001
 43
0.00000001
 40
0.0
 40
0.0
 40
0.0
 40
0.0
 40
0.125
 40
0.125
 40
0.25
 40
0.25
 40
0.375
 40
0.375
 40
0.5
 40
0.5
 40
0.625
 40
0.625
 40
0.75
 40
0.75
 40
0.875
 40
0.875
 40
1.0
 40
1.0
 40
1.0
 40
1.0
 10
177.2268787194601
 20
133.0709637728669
 30
0.0
 10
177.227763853709
 20
133.3120413976972
 30
0.0
 10
177.2537326945032
 20
133.5533880989503
 30
0.0
 10
177.3522116774999
 20
134.0195302670417
 30
0.0
 10
177.4240212341622
 20
134.2438062875584
 30
0.0
 10
177.6109750178521
 20
134.6752789550048
 30
0.0
 10
177.7274187504203
 20
134.8833974402481
 30
0.0
 10
177.9924188335663
 20
135.2636817417676
 30
0.0
 10
178.1419631964212
 20
135.438725974945
 30
0.0
 10
178.4755931566697
 20
135.7594293781394
 30
0.0
 10
178.6564832044703
 20
135.9014931872959
 30
0.0
 10
179.0348947066423
 20
136.1447236116511
 30
0.0
 10
179.2338780737342
 20
136.247275670204
 30
0.0
 10
179.65171475777
 20
136.4143528900407
 30
0.0
 10
179.8699613636809
 20
136.4780518866321
 30
0.0
 10
180.3088002039377
 20
136.5619515634032
 30
0.0
 10
180.5317116675666
 20
136.5831159706183
 30
0.0
 10
180.7578825194091
 20
136.5826721007615
 30
0.0
  0
SPLINE
  5
98
330
1F
100
AcDbEntity
  8
0
  6
Continuous
 62
     7
370
    15
100
AcDbSpline
210
0.0
220
0.0
230
1.0
 70
     8
 71
     3
 72
    11
 73
     7
 74
     0
 42
0.00000001
 43
0.00000001
 40
0.0
 40
0.0
 40
0.0
 40
0.0
 40
0.0000111938588189
 40
0.0000111938588189
 40
0.0000111938588189
 40
0.0000252257994161
 40
0.0000252257994161
 40
0.0000252257994161
 40
0.0000252257994161
 10
180.7578825194091
 20
136.5826721007624
 30
0.0
 10
180.7552042708468
 20
136.5826631868349
 30
0.0
 10
180.7525260418852
 20
136.5826512202317
 30
0.0
 10
180.7498478270594
 20
136.5826362011415
 30
0.0
 10
180.7464905798448
 20
136.5826173741235
 30
0.0
 10
180.7431333652291
 20
136.5825937504144
 30
0.0
 10
180.7397761316661
 20
136.5825653305055
 30
0.0
  0
SPLINE
  5
99
330
1F
100
AcDbEntity
  8
0
  6
Continuous
 62
     7
370
    15
100
AcDbSpline
210
0.0
220
0.0
230
1.0
 70
     8
 71
     3
 72
    22
 73
    18
 74
     0
 42
0.00000001
 43
0.00000001
 40
0.0
 40
0.0
 40
0.0
 40
0.0
 40
0.125
 40
0.125
 40
0.25
 40
0.25
 40
0.375
 40
0.375
 40
0.5
 40
0.5
 40
0.625
 40
0.625
 40
0.75
 40
0.75
 40
0.875
 40
0.875
 40
1.0
 40
1.0
 40
1.0
 40
1.0
 10
177.2268787194601
 20
133.0451187013522
 30
0.0
 10
177.2277638537095
 20
132.8040410765223
 30
0.0
 10
177.2537326945042
 20
132.5626943752696
 30
0.0
 10
177.3522116775016
 20
132.0965522071791
 30
0.0
 10
177.4240212341641
 20
131.8722761866628
 30
0.0
 10
177.6109750178546
 20
131.4408035192173
 30
0.0
 10
177.7274187504229
 20
131.2326850339744
 30
0.0
 10
177.9924188335689
 20
130.8524007324558
 30
0.0
 10
178.1419631964239
 20
130.6773564992787
 30
0.0
 10
178.4755931566723
 20
130.3566530960851
 30
0.0
 10
178.6564832044727
 20
130.2145892869291
 30
0.0
 10
179.0348947066444
 20
129.9713588625744
 30
0.0
 10
179.2338780737361
 20
129.8688068040218
 30
0.0
 10
179.6517147577715
 20
129.7017295841856
 30
0.0
 10
179.8699613636821
 20
129.6380305875944
 30
0.0
 10
180.3088002039382
 20
129.5541309108234
 30
0.0
 10
180.531711667567
 20
129.5329665036084
 30
0.0
 10
180.7578825194091
 20
129.5334103734652
 30
0.0
  0
SPLINE
  5
9A
330
1F
100
AcDbEntity
  8
0
  6
Continuous
 62
     7
370
    15
100
AcDbSpline
210
0.0
220
0.0
230
1.0
 70
     8
 71
     3
 72
     8
 73
     4
 74
     0
 42
0.00000001
 43
0.00000001
 40
0.0
 40
0.0
 40
0.0
 40
0.0
 40
1.0
 40
1.0
 40
1.0
 40
1.0
 10
177.2268549778203
 20
133.0580412371591
 30
0.0
 10
177.2268549689256
 20
133.0537337155413
 30
0.0
 10
177.2268628828234
 20
133.0494261938908
 30
0.0
 10
177.2268787194601
 20
133.0451187013522
 30
0.0
  0
SPLINE
  5
9B
330
1F
100
AcDbEntity
  8
0
  6
Continuous
 62
     7
370
    15
100
AcDbSpline
210
0.0
220
0.0
230
1.0
 70
     8
 71
     3
 72
    11
 73
     7
 74
     0
 42
0.00000001
 43
0.00000001
 40
0.0
 40
0.0
 40
0.0
 40
0.0
 40
0.0000112288885425
 40
0.0000112288885425
 40
0.0000112288885425
 40
0.0000252608291398
 40
0.0000252608291398
 40
0.0000252608291398
 40
0.0000252608291398
 10
233.7216446002251
 20
136.5826721843579
 30
0.0
 10
233.7243312301461
 20
136.5826632617012
 30
0.0
 10
233.7270178403232
 20
136.582651267232
 30
0.0
 10
233.729704436276
 20
136.5826362011415
 30
0.0
 10
233.7330616834938
 20
136.5826173741236
 30
0.0
 10
233.7364188981059
 20
136.5825937504144
 30
0.0
 10
233.7397761316689
 20
136.5825653305055
 30
0.0
  0
SPLINE
  5
9C
330
1F
100
AcDbEntity
  8
0
  6
Continuous
 62
     7
370
    15
100
AcDbSpline
210
0.0
220
0.0
230
1.0
 70
     8
 71
     3
 72
    22
 73
    18
 74
     0
 42
0.00000001
 43
0.00000001
 40
0.0
 40
0.0
 40
0.0
 40
0.0
 40
0.125
 40
0.125
 40
0.25
 40
0.25
 40
0.375
 40
0.375
 40
0.5
 40
0.5
 40
0.625
 40
0.625
 40
0.75
 40
0.75
 40
0.875
 40
0.875
 40
1.0
 40
1.0
 40
1.0
 40
1.0
 10
233.7216446002251
 20
136.5826721843579
 30
0.0
 10
233.947604567121
 20
136.5831141000724
 30
0.0
 10
234.1713505547285
 20
136.5618640561915
 30
0.0
 10
234.6099245483165
 20
136.4779541034924
 30
0.0
 10
234.8271344191124
 20
136.414631671656
 30
0.0
 10
235.2463775228349
 20
136.2469953965739
 30
0.0
 10
235.445810560408
 20
136.1441140624758
 30
0.0
 10
235.8247670597094
 20
135.9002847161677
 30
0.0
 10
236.0059958268072
 20
135.7576920776686
 30
0.0
 10
236.3384916437003
 20
135.4376674372793
 30
0.0
 10
236.48762303995
 20
135.2630148849607
 30
0.0
 10
236.7522089328375
 20
134.883227874424
 30
0.0
 10
236.8686839235637
 20
134.6751509648859
 30
0.0
 10
237.0558916986827
 20
134.2429511488283
 30
0.0
 10
237.1276143704523
 20
134.0185889762134
 30
0.0
 10
237.2258550473061
 20
133.5531146039326
 30
0.0
 10
237.2517953939952
 20
133.3118954436162
 30
0.0
 10
237.2526622947717
 20
133.0709493901803
 30
0.0
  0
SPLINE
  5
9D
330
1F
100
AcDbEntity
  8
0
  6
Continuous
 62
     7
370
    15
100
AcDbSpline
210
0.0
220
0.0
230
1.0
 70
     8
 71
     3
 72
     8
 73
     4
 74
     0
 42
0.00000001
 43
0.00000001
 40
0.0
 40
0.0
 40
0.0
 40
0.0
 40
1.0
 40
1.0
 40
1.0
 40
1.0
 10
237.2526622947717
 20
133.0709493901813
 30
0.0
 10
237.2526777746928
 20
133.0666469071377
 30
0.0
 10
237.2526853722506
 20
133.0623441894567
 30
0.0
 10
237.2526850849701
 20
133.0580412370867
 30
0.0
  0
SPLINE
  5
9E
330
1F
100
AcDbEntity
  8
0
  6
Continuous
 62
     7
370
    15
100
AcDbSpline
210
0.0
220
0.0
230
1.0
 70
     8
 71
     3
 72
     8
 73
     4
 74
     0
 42
0.00000001
 43
0.00000001
 40
0.0
 40
0.0
 40
0.0
 40
0.0
 40
1.0
 40
1.0
 40
1.0
 40
1.0
 10
237.2526850849701
 20
133.0580412370846
 30
0.0
 10
237.2526853722506
 20
133.0537382847361
 30
0.0
 10
237.2526777746928
 20
133.0494355670767
 30
0.0
 10
237.2526622947718
 20
133.0451330840547
 30
0.0
  0
SPLINE
  5
9F
330
1F
100
AcDbEntity
  8
0
  6
Continuous
 62
     7
370
    15
100
AcDbSpline
210
0.0
220
0.0
230
1.0
 70
     8
 71
     3
 72
    22
 73
    18
 74
     0
 42
0.00000001
 43
0.00000001
 40
0.0
 40
0.0
 40
0.0
 40
0.0
 40
0.125
 40
0.125
 40
0.2499999999999999
 40
0.2499999999999999
 40
0.3749999999999999
 40
0.3749999999999999
 40
0.4999999999999999
 40
0.4999999999999999
 40
0.6249999999999999
 40
0.6249999999999999
 40
0.7499999999999999
 40
0.7499999999999999
 40
0.875
 40
0.875
 40
1.0
 40
1.0
 40
1.0
 40
1.0
 10
233.7216446002251
 20
129.5334102898688
 30
0.0
 10
233.9476045671214
 20
129.5329683741543
 30
0.0
 10
234.1713505547293
 20
129.5542184180352
 30
0.0
 10
234.6099245483178
 20
129.6381283707347
 30
0.0
 10
234.8271344191141
 20
129.7014508025713
 30
0.0
 10
235.2463775228372
 20
129.8690870776539
 30
0.0
 10
235.4458105604106
 20
129.9719684117523
 30
0.0
 10
235.8247670597124
 20
130.2157977580611
 30
0.0
 10
236.0059958268104
 20
130.3583903965607
 30
0.0
 10
236.3384916437035
 20
130.678415036951
 30
0.0
 10
236.4876230399532
 20
130.8530675892701
 30
0.0
 10
236.7522089328406
 20
131.2328545998079
 30
0.0
 10
236.8686839235667
 20
131.4409315093466
 30
0.0
 10
237.0558916986852
 20
131.8731313254052
 30
0.0
 10
237.1276143704544
 20
132.0974934980206
 30
0.0
 10
237.2258550473073
 20
132.5629678703025
 30
0.0
 10
237.2517953939958
 20
132.8041870306193
 30
0.0
 10
237.2526622947718
 20
133.0451330840557
 30
0.0
  0
SPLINE
  5
A0
330
1F
100
AcDbEntity
  8
0
  6
Continuous
 62
     7
370
    15
100
AcDbSpline
210
0.0
220
0.0
230
1.0
 70
     8
 71
     3
 72
    11
 73
     7
 74
     0
 42
0.00000001
 43
0.00000001
 40
0.0
 40
0.0
 40
0.0
 40
0.0
 40
0.0000112288885425
 40
0.0000112288885425
 40
0.0000112288885425
 40
0.0000252608291398
 40
0.0000252608291398
 40
0.0000252608291398
 40
0.0000252608291398
 10
233.7216446002251
 20
129.5334102898688
 30
0.0
 10
233.7243312301461
 20
129.5334192125255
 30
0.0
 10
233.7270178403232
 20
129.5334312069947
 30
0.0
 10
233.729704436276
 20
129.5334462730852
 30
0.0
 10
233.7330616834938
 20
129.5334651001031
 30
0.0
 10
233.7364188981059
 20
129.5334887238122
 30
0.0
 10
233.7397761316689
 20
129.5335171437212
 30
0.0
  0
SPLINE
  5
A1
330
1F
100
AcDbEntity
  8
0
  6
Continuous
 62
     7
370
    15
100
AcDbSpline
210
0.0
220
0.0
230
1.0
 70
     8
 71
     3
 72
    10
 73
     6
 74
     0
 42
0.00000001
 43
0.00000001
 40
0.0
 40
0.0
 40
0.0
 40
0.0
 40
0.5
 40
0.5
 40
1.0
 40
1.0
 40
1.0
 40
1.0
 10
180.7543070361924
 20
134.6938149190802
 30
0.0
 10
180.7529798644246
 20
134.824335233392
 30
0.0
 10
180.8018589865005
 20
134.951275502929
 30
0.0
 10
180.9811027975647
 20
135.1407106872104
 30
0.0
 10
181.1117366637858
 20
135.1995516930172
 30
0.0
 10
181.2479610892746
 20
135.1995516930172
 30
0.0
  0
SPLINE
  5
A2
330
1F
100
AcDbEntity
  8
0
  6
Continuous
 62
     7
370
    15
100
AcDbSpline
210
0.0
220
0.0
230
1.0
 70
     8
 71
     3
 72
    10
 73
     6
 74
     0
 42
0.00000001
 43
0.00000001
 40
0.0
 40
0.0
 40
0.0
 40
0.0
 40
0.5000000000000003
 40
0.5000000000000003
 40
1.0
 40
1.0
 40
1.0
 40
1.0
 10
233.2315911740631
 20
130.9165307812095
 30
0.0
 10
233.3676241222892
 20
130.9165307812095
 30
0.0
 10
233.498611041495
 20
130.9756428866179
 30
0.0
 10
233.6771706705036
 20
131.1641545164726
 30
0.0
 10
233.7265710434197
 20
131.2918805464264
 30
0.0
 10
233.7252452271453
 20
131.4222675551465
 30
0.0
  0
SPLINE
  5
A3
330
1F
100
AcDbEntity
  8
0
  6
Continuous
 62
     7
370
    15
100
AcDbSpline
210
0.0
220
0.0
230
1.0
 70
     8
 71
     3
 72
    10
 73
     6
 74
     0
 42
0.00000001
 43
0.00000001
 40
0.0
 40
0.0
 40
0.0
 40
0.0
 40
0.5000000000000003
 40
0.5000000000000003
 40
1.0
 40
1.0
 40
1.0
 40
1.0
 10
233.2315911740631
 20
135.1995516930172
 30
0.0
 10
233.3676241222892
 20
135.1995516930172
 30
0.0
 10
233.498611041495
 20
135.1404395876088
 30
0.0
 10
233.6771706705036
 20
134.951927957754
 30
0.0
 10
233.7265710434197
 20
134.8242019278003
 30
0.0
 10
233.7252452271453
 20
134.6938149190802
 30
0.0
  0
SPLINE
  5
A4
330
1F
100
AcDbEntity
  8
0
  6
Continuous
 62
     7
370
    15
100
AcDbSpline
210
0.0
220
0.0
230
1.0
 70
     8
 71
     3
 72
    10
 73
     6
 74
     0
 42
0.00000001
 43
0.00000001
 40
0.0
 40
0.0
 40
0.0
 40
0.0
 40
0.5
 40
0.5
 40
1.0
 40
1.0
 40
1.0
 40
1.0
 10
180.7543070361924
 20
131.4222675551465
 30
0.0
 10
180.7529798644246
 20
131.2917472408347
 30
0.0
 10
180.8018589865005
 20
131.1648069712977
 30
0.0
 10
180.9811027975647
 20
130.9753717870163
 30
0.0
 10
181.1117366637858
 20
130.9165307812095
 30
0.0
 10
181.2479610892746
 20
130.9165307812095
 30
0.0
  0
LINE
  5
A5
330
1F
100
AcDbEntity
  8
0
  6
Continuous
 62
     7
370
    15
100
AcDbLine
 10
226.1257257582
 20
135.1995516064
 30
0.0
 11
233.2315903427
 21
135.1995516064
 31
0.0
  0
SPLINE
  5
A6
330
1F
100
AcDbEntity
  8
0
  6
Continuous
 62
     7
370
    15
100
AcDbSpline
210
0.0
220
0.0
230
1.0
 70
     8
 71
     3
 72
     8
 73
     4
 74
     0
 42
0.00000001
 43
0.00000001
 40
0.0
 40
0.0
 40
0.0
 40
0.0
 40
0.0001622064019983
 40
0.0001622064019983
 40
0.0001622064019983
 40
0.0001622064019983
 10
226.1257249878461
 20
135.1995516930172
 30
0.0
 10
226.1227430218782
 20
135.2014357949875
 30
0.0
 10
226.1197813673257
 20
135.2033199363066
 30
0.0
 10
226.1168443467836
 20
135.2052041242628
 30
0.0
  0
SPLINE
  5
A7
330
1F
100
AcDbEntity
  8
0
  6
Continuous
 62
     7
370
    15
100
AcDbSpline
210
0.0
220
0.0
230
1.0
 70
     8
 71
     3
 72
     8
 73
     4
 74
     0
 42
0.00000001
 43
0.00000001
 40
0.0
 40
0.0
 40
0.0
 40
0.0
 40
0.0001622064019983
 40
0.0001622064019983
 40
0.0001622064019983
 40
0.0001622064019983
 10
226.1257249878461
 20
130.9165307812095
 30
0.0
 10
226.1227430218782
 20
130.9146466792392
 30
0.0
 10
226.1197813673257
 20
130.9127625379201
 30
0.0
 10
226.1168443467836
 20
130.9108783499639
 30
0.0
  0
LINE
  5
A8
330
1F
100
AcDbEntity
  8
0
  6
Continuous
 62
     7
370
    15
100
AcDbLine
 10
226.1257257582
 20
130.9165308679
 30
0.0
 11
233.2315903427
 21
130.9165308679
 31
0.0
  0
SPLINE
  5
A9
330
1F
100
AcDbEntity
  8
0
  6
Continuous
 62
     7
370
    15
100
AcDbSpline
210
0.0
220
0.0
230
1.0
 70
     8
 71
     3
 72
    14
 73
    10
 74
     0
 42
0.00000001
 43
0.00000001
 40
0.0000000000050481
 40
0.0000000000050481
 40
0.0000000000050481
 40
0.0000000000050481
 40
0.0000833478333778
 40
0.0000833478333778
 40
0.0000833478333778
 40
0.0001267434380043
 40
0.0001267434380043
 40
0.0001267434380043
 40
0.0001406855535391
 40
0.0001406855535391
 40
0.0001406855535391
 40
0.0001406855535391
 10
196.6168443500401
 20
135.2052041242628
 30
0.0
 10
196.5890617389165
 20
135.2052041116008
 30
0.0
 10
196.5611036996195
 20
135.2022579175553
 30
0.0
 10
196.5339663224689
 20
135.1964246260616
 30
0.0
 10
196.5197744058239
 20
135.1933740148627
 30
0.0
 10
196.5057439863321
 20
135.18953027773
 30
0.0
 10
196.4920015640775
 20
135.1849385718745
 30
0.0
 10
196.4875828761449
 20
135.1834621716534
 30
0.0
 10
196.4831905593407
 20
135.1819076313053
 30
0.0
 10
196.4788278126726
 20
135.1802765464463
 30
0.0
  0
SPLINE
  5
AA
330
1F
100
AcDbEntity
  8
0
  6
Continuous
 62
     7
370
    15
100
AcDbSpline
210
0.0
220
0.0
230
1.0
 70
     8
 71
     3
 72
    14
 73
    10
 74
     0
 42
0.00000001
 43
0.00000001
 40
0.0000000000050481
 40
0.0000000000050481
 40
0.0000000000050481
 40
0.0000000000050481
 40
0.0000833478333778
 40
0.0000833478333778
 40
0.0000833478333778
 40
0.0001267434380043
 40
0.0001267434380043
 40
0.0001267434380043
 40
0.0001406855535391
 40
0.0001406855535391
 40
0.0001406855535391
 40
0.0001406855535391
 10
196.6168443500401
 20
130.9108783499639
 30
0.0
 10
196.5890617389165
 20
130.9108783626259
 30
0.0
 10
196.5611036996195
 20
130.9138245566714
 30
0.0
 10
196.5339663224689
 20
130.9196578481651
 30
0.0
 10
196.5197744058239
 20
130.922708459364
 30
0.0
 10
196.5057439863321
 20
130.9265521964967
 30
0.0
 10
196.4920015640775
 20
130.9311439023523
 30
0.0
 10
196.4875828761449
 20
130.9326203025733
 30
0.0
 10
196.4831905593407
 20
130.9341748429214
 30
0.0
 10
196.4788278126726
 20
130.9358059277804
 30
0.0
  0
SPLINE
  5
AB
330
1F
100
AcDbEntity
  8
0
  6
Continuous
 62
     7
370
    15
100
AcDbSpline
210
0.0
220
0.0
230
1.0
 70
     8
 71
     3
 72
    14
 73
    10
 74
     0
 42
0.00000001
 43
0.00000001
 40
0.0000300743422248
 40
0.0000300743422248
 40
0.0000300743422248
 40
0.0000300743422248
 40
0.000083392869315
 40
0.000083392869315
 40
0.000083392869315
 40
0.0001267689099525
 40
0.0001267689099525
 40
0.0001267689099525
 40
0.0001707220982893
 40
0.0001707220982893
 40
0.0001707220982893
 40
0.0001707220982893
 10
218.000724450665
 20
135.1802765464463
 30
0.0
 10
217.9841150402084
 20
135.1864862487217
 30
0.0
 10
217.9670390045654
 20
135.1915941906819
 30
0.0
 10
217.9497106186795
 20
135.1955147402733
 30
0.0
 10
217.9355658582859
 20
135.1987149941774
 30
0.0
 10
217.9212051344888
 20
135.2011353329355
 30
0.0
 10
217.9067778307909
 20
135.2027507297173
 30
0.0
 10
217.8921570634947
 20
135.2043877882373
 30
0.0
 10
217.8774206336756
 20
135.2052041175574
 30
0.0
 10
217.8627079132975
 20
135.2052041242628
 30
0.0
  0
SPLINE
  5
AC
330
1F
100
AcDbEntity
  8
0
  6
Continuous
 62
     7
370
    15
100
AcDbSpline
210
0.0
220
0.0
230
1.0
 70
     8
 71
     3
 72
    14
 73
    10
 74
     0
 42
0.00000001
 43
0.00000001
 40
0.0000000000032376
 40
0.0000000000032376
 40
0.0000000000032376
 40
0.0000000000032376
 40
0.0000833363098708
 40
0.0000833363098708
 40
0.0000833363098708
 40
0.0001267105655088
 40
0.0001267105655088
 40
0.0001267105655088
 40
0.000140650382904
 40
0.000140650382904
 40
0.000140650382904
 40
0.000140650382904
 10
226.1168443500401
 20
130.9108783499639
 30
0.0
 10
226.0890655800841
 20
130.9108783577132
 30
0.0
 10
226.0611341514957
 20
130.9138509727935
 30
0.0
 10
226.0339909020459
 20
130.9196767604646
 30
0.0
 10
226.0198052280279
 20
130.9227214484248
 30
0.0
 10
226.0057680487844
 20
130.9265543078271
 30
0.0
 10
225.9920205997837
 20
130.9311391690182
 30
0.0
 10
225.9875995086545
 20
130.9326136308722
 30
0.0
 10
225.9832053881547
 20
130.9341666286494
 30
0.0
 10
225.9788434871496
 20
130.9357963712619
 30
0.0
  0
LINE
  5
AD
330
1F
100
AcDbEntity
  8
0
  6
Continuous
 62
     7
370
    15
100
AcDbLine
 10
181.2479619207
 20
130.9165308679
 30
0.0
 11
188.3538265051
 21
130.9165308679
 31
0.0
  0
SPLINE
  5
AE
330
1F
100
AcDbEntity
  8
0
  6
Continuous
 62
     7
370
    15
100
AcDbSpline
210
0.0
220
0.0
230
1.0
 70
     8
 71
     3
 72
     8
 73
     4
 74
     0
 42
0.00000001
 43
0.00000001
 40
0.0
 40
0.0
 40
0.0
 40
0.0
 40
0.0001622064021565
 40
0.0001622064021565
 40
0.0001622064021565
 40
0.0001622064021565
 10
188.3627079132976
 20
130.9108783499639
 30
0.0
 10
188.3597708917316
 20
130.91276253792
 30
0.0
 10
188.3568092362178
 20
130.9146466792391
 30
0.0
 10
188.3538272693459
 20
130.9165307812095
 30
0.0
  0
SPLINE
  5
AF
330
1F
100
AcDbEntity
  8
0
  6
Continuous
 62
     7
370
    15
100
AcDbSpline
210
0.0
220
0.0
230
1.0
 70
     8
 71
     3
 72
    14
 73
    10
 74
     0
 42
0.00000001
 43
0.00000001
 40
0.0000300793065496
 40
0.0000300793065496
 40
0.0000300793065496
 40
0.0000300793065496
 40
0.0000832783527569
 40
0.0000832783527569
 40
0.0000832783527569
 40
0.0001266791338111
 40
0.0001266791338111
 40
0.0001266791338111
 40
0.0001706344132017
 40
0.0001706344132017
 40
0.0001706344132017
 40
0.0001706344132017
 10
188.5007087761879
 20
135.1802861029648
 30
0.0
 10
188.4841276719595
 20
135.1864813219972
 30
0.0
 10
188.4670542925164
 20
135.1915715789019
 30
0.0
 10
188.4497549896868
 20
135.195481757139
 30
0.0
 10
188.4355902702564
 20
135.1986834224429
 30
0.0
 10
188.4212225589946
 20
135.2011075596767
 30
0.0
 10
188.4067851805596
 20
135.2027312441238
 30
0.0
 10
188.3921643255485
 20
135.2043755630693
 30
0.0
 10
188.3774245967449
 20
135.2052041201574
 30
0.0
 10
188.3627079132976
 20
135.2052041242628
 30
0.0
  0
ELLIPSE
  5
B0
330
1F
100
AcDbEntity
  8
0
  6
Continuous
 62
     7
370
    15
100
AcDbEllipse
 10
180.56050856
 20
133.0778505835
 30
0.0
 11
0.0
 21
5.780146350000023
 31
0.0
210
0.0
220
0.0
230
1.0
 40
0.0349207695
 41
4.714261562411335
 42
4.995736791547754
  0
LINE
  5
B1
330
1F
100
AcDbEntity
  8
0
  6
Continuous
 62
     7
370
    15
100
AcDbLine
 10
180.7623554291
 20
133.0580412373
 30
0.0
 11
180.7623479785
 21
133.0886725421
 31
0.0
  0
LINE
  5
B2
330
1F
100
AcDbEntity
  8
0
  6
Continuous
 62
     7
370
    15
100
AcDbLine
 10
180.7623554291
 20
133.0580412373
 30
0.0
 11
180.7623479785
 21
133.0274099321
 31
0.0
  0
ELLIPSE
  5
B3
330
1F
100
AcDbEntity
  8
0
  6
Continuous
 62
     7
370
    15
100
AcDbEllipse
 10
180.56050856
 20
133.0382318907
 30
0.0
 11
0.0
 21
5.780146349999995
 31
0.0
210
0.0
220
0.0
230
1.0
 40
0.0349207695
 41
4.429041169221724
 42
4.710516398358045
  0
SPLINE
  5
B4
330
1F
100
AcDbEntity
  8
0
  6
Continuous
 62
     7
370
    15
100
AcDbSpline
210
0.0
220
0.0
230
1.0
 70
     8
 71
     3
 72
    14
 73
    10
 74
     0
 42
0.00000001
 43
0.00000001
 40
0.0000300793065496
 40
0.0000300793065496
 40
0.0000300793065496
 40
0.0000300793065496
 40
0.0000832783527569
 40
0.0000832783527569
 40
0.0000832783527569
 40
0.0001266791338111
 40
0.0001266791338111
 40
0.0001266791338111
 40
0.0001706344132017
 40
0.0001706344132017
 40
0.0001706344132017
 40
0.0001706344132017
 10
188.5007087761879
 20
130.9357963712619
 30
0.0
 10
188.4841276719595
 20
130.9296011522295
 30
0.0
 10
188.4670542925164
 20
130.9245108953248
 30
0.0
 10
188.4497549896868
 20
130.9206007170877
 30
0.0
 10
188.4355902702564
 20
130.9173990517838
 30
0.0
 10
188.4212225589946
 20
130.91497491455
 30
0.0
 10
188.4067851805596
 20
130.913351230103
 30
0.0
 10
188.3921643255485
 20
130.9117069111574
 30
0.0
 10
188.3774245967449
 20
130.9108783540693
 30
0.0
 10
188.3627079132976
 20
130.9108783499639
 30
0.0
  0
SPLINE
  5
B5
330
1F
100
AcDbEntity
  8
0
  6
Continuous
 62
     7
370
    15
100
AcDbSpline
210
0.0
220
0.0
230
1.0
 70
     8
 71
     3
 72
    14
 73
    10
 74
     0
 42
0.00000001
 43
0.00000001
 40
0.0000300743422248
 40
0.0000300743422248
 40
0.0000300743422248
 40
0.0000300743422248
 40
0.000083392869315
 40
0.000083392869315
 40
0.000083392869315
 40
0.0001267689099525
 40
0.0001267689099525
 40
0.0001267689099525
 40
0.0001707220982893
 40
0.0001707220982893
 40
0.0001707220982893
 40
0.0001707220982893
 10
218.000724450665
 20
130.9358059277804
 30
0.0
 10
217.9841150402084
 20
130.929596225505
 30
0.0
 10
217.9670390045654
 20
130.9244882835448
 30
0.0
 10
217.9497106186795
 20
130.9205677339534
 30
0.0
 10
217.9355658582859
 20
130.9173674800493
 30
0.0
 10
217.9212051344888
 20
130.9149471412912
 30
0.0
 10
217.9067778307909
 20
130.9133317445094
 30
0.0
 10
217.8921570634947
 20
130.9116946859894
 30
0.0
 10
217.8774206336756
 20
130.9108783566693
 30
0.0
 10
217.8627079132975
 20
130.9108783499639
 30
0.0
  0
SPLINE
  5
B6
330
1F
100
AcDbEntity
  8
0
  6
Continuous
 62
     7
370
    15
100
AcDbSpline
210
0.0
220
0.0
230
1.0
 70
     8
 71
     3
 72
     8
 73
     4
 74
     0
 42
0.00000001
 43
0.00000001
 40
0.0
 40
0.0
 40
0.0
 40
0.0
 40
0.0001622064021565
 40
0.0001622064021565
 40
0.0001622064021565
 40
0.0001622064021565
 10
188.3627079132976
 20
135.2052041242628
 30
0.0
 10
188.3597708917316
 20
135.2033199363067
 30
0.0
 10
188.3568092362178
 20
135.2014357949876
 30
0.0
 10
188.3538272693459
 20
135.1995516930172
 30
0.0
  0
LINE
  5
B7
330
1F
100
AcDbEntity
  8
0
  6
Continuous
 62
     7
370
    15
100
AcDbLine
 10
181.2479619207
 20
135.1995516064
 30
0.0
 11
188.3538265051
 21
135.1995516064
 31
0.0
  0
SPLINE
  5
B8
330
1F
100
AcDbEntity
  8
0
  6
Continuous
 62
     7
370
    15
100
AcDbSpline
210
0.0
220
0.0
230
1.0
 70
     8
 71
     3
 72
    14
 73
    10
 74
     0
 42
0.00000001
 43
0.00000001
 40
0.0000000000032376
 40
0.0000000000032376
 40
0.0000000000032376
 40
0.0000000000032376
 40
0.0000833363098708
 40
0.0000833363098708
 40
0.0000833363098708
 40
0.0001267105655088
 40
0.0001267105655088
 40
0.0001267105655088
 40
0.000140650382904
 40
0.000140650382904
 40
0.000140650382904
 40
0.000140650382904
 10
226.1168443500401
 20
135.2052041242628
 30
0.0
 10
226.0890655800841
 20
135.2052041165135
 30
0.0
 10
226.0611341514957
 20
135.2022315014332
 30
0.0
 10
226.0339909020459
 20
135.1964057137621
 30
0.0
 10
226.0198052280279
 20
135.1933610258019
 30
0.0
 10
226.0057680487844
 20
135.1895281663996
 30
0.0
 10
225.9920205997837
 20
135.1849433052085
 30
0.0
 10
225.9875995086545
 20
135.1834688433545
 30
0.0
 10
225.9832053881547
 20
135.1819158455773
 30
0.0
 10
225.9788434871496
 20
135.1802861029648
 30
0.0
  0
ELLIPSE
  5
B9
330
1F
100
AcDbEntity
  8
0
  6
Continuous
 62
     7
370
    15
100
AcDbEllipse
 10
233.9190437033
 20
133.0382318907
 30
0.0
 11
0.0
 21
5.780146349999995
 31
0.0
210
0.0
220
0.0
230
1.0
 40
0.0349207695
 41
1.56206968053493
 42
1.567369184281986
  0
LINE
  5
BA
330
1F
100
AcDbEntity
  8
0
  6
Continuous
 62
     7
370
    15
100
AcDbLine
 10
233.7171968342
 20
133.0886743756
 30
0.0
 11
233.7172042848
 21
133.0886725421
 31
0.0
  0
ELLIPSE
  5
BB
330
1F
100
AcDbEntity
  8
0
  6
Continuous
 62
     7
370
    15
100
AcDbEllipse
 10
233.9190437033
 20
133.0778505835
 30
0.0
 11
0.0
 21
5.780146350000023
 31
0.0
210
0.0
220
0.0
230
1.0
 40
0.0349207695
 41
1.287448515631829
 42
1.568923744768252
  0
ELLIPSE
  5
BC
330
1F
100
AcDbEntity
  8
0
  6
Continuous
 62
     7
370
    15
100
AcDbEllipse
 10
233.9190437033
 20
133.0382318907
 30
0.0
 11
0.0
 21
5.780146349999995
 31
0.0
210
0.0
220
0.0
230
1.0
 40
0.0349207695
 41
1.572668908821541
 42
1.854144137957928
  0
LINE
  5
BD
330
1F
100
AcDbEntity
  8
0
  6
Continuous
 62
     7
370
    15
100
AcDbLine
 10
233.7171968342
 20
133.0274080986
 30
0.0
 11
233.7172042848
 21
133.0274099321
 31
0.0
  0
ELLIPSE
  5
BE
330
1F
100
AcDbEntity
  8
0
  6
Continuous
 62
     7
370
    15
100
AcDbEllipse
 10
233.9190437033
 20
133.0778505835
 30
0.0
 11
0.0
 21
5.780146350000023
 31
0.0
210
0.0
220
0.0
230
1.0
 40
0.0349207695
 41
1.574223469257437
 42
1.579522972852266
  0
SPLINE
  5
BF
330
1F
100
AcDbEntity
  8
0
  6
Continuous
 62
     7
370
    15
100
AcDbSpline
210
0.0
220
0.0
230
1.0
 70
     8
 71
     3
 72
     8
 73
     4
 74
     0
 42
0.00000001
 43
0.00000001
 40
0.0
 40
0.0
 40
0.0
 40
0.0
 40
0.0001622064021565
 40
0.0001622064021565
 40
0.0001622064021565
 40
0.0001622064021565
 10
217.8627079132975
 20
135.2052041242628
 30
0.0
 10
217.8597708917316
 20
135.2033199363067
 30
0.0
 10
217.8568092362178
 20
135.2014357949876
 30
0.0
 10
217.8538272693458
 20
135.1995516930172
 30
0.0
  0
LINE
  5
C0
330
1F
100
AcDbEntity
  8
0
  6
Continuous
 62
     7
370
    15
100
AcDbLine
 10
211.3757252032
 20
135.1995516064
 30
0.0
 11
217.8538276152
 21
135.1995516064
 31
0.0
  0
SPLINE
  5
C1
330
1F
100
AcDbEntity
  8
0
  6
Continuous
 62
     7
370
    15
100
AcDbSpline
210
0.0
220
0.0
230
1.0
 70
     8
 71
     3
 72
     8
 73
     4
 74
     0
 42
0.00000001
 43
0.00000001
 40
0.0
 40
0.0
 40
0.0
 40
0.0
 40
0.0001622064019984
 40
0.0001622064019984
 40
0.0001622064019984
 40
0.0001622064019984
 10
211.3757249878461
 20
135.1995516930172
 30
0.0
 10
211.3727430218782
 20
135.2014357949875
 30
0.0
 10
211.3697813673257
 20
135.2033199363066
 30
0.0
 10
211.3668443467836
 20
135.2052041242628
 30
0.0
  0
SPLINE
  5
C2
330
1F
100
AcDbEntity
  8
0
  6
Continuous
 62
     7
370
    15
100
AcDbSpline
210
0.0
220
0.0
230
1.0
 70
     8
 71
     3
 72
     8
 73
     4
 74
     0
 42
0.00000001
 43
0.00000001
 40
0.0
 40
0.0
 40
0.0
 40
0.0
 40
0.0001622064021565
 40
0.0001622064021565
 40
0.0001622064021565
 40
0.0001622064021565
 10
203.1127079132975
 20
135.2052041242628
 30
0.0
 10
203.1097708917316
 20
135.2033199363067
 30
0.0
 10
203.1068092362178
 20
135.2014357949876
 30
0.0
 10
203.1038272693458
 20
135.1995516930172
 30
0.0
  0
LINE
  5
C3
330
1F
100
AcDbEntity
  8
0
  6
Continuous
 62
     7
370
    15
100
AcDbLine
 10
196.6257246481
 20
135.1995516064
 30
0.0
 11
203.1038270602
 21
135.1995516064
 31
0.0
  0
SPLINE
  5
C4
330
1F
100
AcDbEntity
  8
0
  6
Continuous
 62
     7
370
    15
100
AcDbSpline
210
0.0
220
0.0
230
1.0
 70
     8
 71
     3
 72
     8
 73
     4
 74
     0
 42
0.00000001
 43
0.00000001
 40
0.0
 40
0.0
 40
0.0
 40
0.0
 40
0.0001622064019099
 40
0.0001622064019099
 40
0.0001622064019099
 40
0.0001622064019099
 10
196.6257249844109
 20
135.1995516930172
 30
0.0
 10
196.6227430189483
 20
135.2014357949874
 30
0.0
 10
196.6197813649331
 20
135.2033199363065
 30
0.0
 10
196.6168443449635
 20
135.2052041242628
 30
0.0
  0
SPLINE
  5
C5
330
1F
100
AcDbEntity
  8
0
  6
Continuous
 62
     7
370
    15
100
AcDbSpline
210
0.0
220
0.0
230
1.0
 70
     8
 71
     3
 72
     8
 73
     4
 74
     0
 42
0.00000001
 43
0.00000001
 40
0.0
 40
0.0
 40
0.0
 40
0.0
 40
0.0001622064019099
 40
0.0001622064019099
 40
0.0001622064019099
 40
0.0001622064019099
 10
196.6257249844109
 20
130.9165307812095
 30
0.0
 10
196.6227430189483
 20
130.9146466792393
 30
0.0
 10
196.6197813649331
 20
130.9127625379202
 30
0.0
 10
196.6168443449635
 20
130.9108783499639
 30
0.0
  0
LINE
  5
C6
330
1F
100
AcDbEntity
  8
0
  6
Continuous
 62
     7
370
    15
100
AcDbLine
 10
196.6257246481
 20
130.9165308679
 30
0.0
 11
203.1038270602
 21
130.9165308679
 31
0.0
  0
SPLINE
  5
C7
330
1F
100
AcDbEntity
  8
0
  6
Continuous
 62
     7
370
    15
100
AcDbSpline
210
0.0
220
0.0
230
1.0
 70
     8
 71
     3
 72
     8
 73
     4
 74
     0
 42
0.00000001
 43
0.00000001
 40
0.0
 40
0.0
 40
0.0
 40
0.0
 40
0.0001622064021565
 40
0.0001622064021565
 40
0.0001622064021565
 40
0.0001622064021565
 10
203.1127079132975
 20
130.9108783499639
 30
0.0
 10
203.1097708917316
 20
130.91276253792
 30
0.0
 10
203.1068092362178
 20
130.9146466792391
 30
0.0
 10
203.1038272693458
 20
130.9165307812095
 30
0.0
  0
SPLINE
  5
C8
330
1F
100
AcDbEntity
  8
0
  6
Continuous
 62
     7
370
    15
100
AcDbSpline
210
0.0
220
0.0
230
1.0
 70
     8
 71
     3
 72
     8
 73
     4
 74
     0
 42
0.00000001
 43
0.00000001
 40
0.0
 40
0.0
 40
0.0
 40
0.0
 40
0.0001622064019984
 40
0.0001622064019984
 40
0.0001622064019984
 40
0.0001622064019984
 10
211.3757249878461
 20
130.9165307812095
 30
0.0
 10
211.3727430218782
 20
130.9146466792392
 30
0.0
 10
211.3697813673257
 20
130.9127625379201
 30
0.0
 10
211.3668443467836
 20
130.9108783499639
 30
0.0
  0
LINE
  5
C9
330
1F
100
AcDbEntity
  8
0
  6
Continuous
 62
     7
370
    15
100
AcDbLine
 10
211.3757252032
 20
130.9165308679
 30
0.0
 11
217.8538276152
 21
130.9165308679
 31
0.0
  0
SPLINE
  5
CA
330
1F
100
AcDbEntity
  8
0
  6
Continuous
 62
     7
370
    15
100
AcDbSpline
210
0.0
220
0.0
230
1.0
 70
     8
 71
     3
 72
     8
 73
     4
 74
     0
 42
0.00000001
 43
0.00000001
 40
0.0
 40
0.0
 40
0.0
 40
0.0
 40
0.0001622064021565
 40
0.0001622064021565
 40
0.0001622064021565
 40
0.0001622064021565
 10
217.8627079132975
 20
130.9108783499639
 30
0.0
 10
217.8597708917316
 20
130.91276253792
 30
0.0
 10
217.8568092362178
 20
130.9146466792391
 30
0.0
 10
217.8538272693458
 20
130.9165307812095
 30
0.0
  0
SPLINE
  5
CB
330
1F
100
AcDbEntity
  8
0
  6
Continuous
 62
     7
370
    15
100
AcDbSpline
210
0.0
220
0.0
230
1.0
 70
     8
 71
     3
 72
    14
 73
    10
 74
     0
 42
0.00000001
 43
0.00000001
 40
0.0000300743422248
 40
0.0000300743422248
 40
0.0000300743422248
 40
0.0000300743422248
 40
0.000083392869315
 40
0.000083392869315
 40
0.000083392869315
 40
0.0001267689099525
 40
0.0001267689099525
 40
0.0001267689099525
 40
0.0001707220982893
 40
0.0001707220982893
 40
0.0001707220982893
 40
0.0001707220982893
 10
203.250724450665
 20
135.1802765464463
 30
0.0
 10
203.2341150402084
 20
135.1864862487217
 30
0.0
 10
203.2170390045653
 20
135.1915941906819
 30
0.0
 10
203.1997106186795
 20
135.1955147402733
 30
0.0
 10
203.1855658582858
 20
135.1987149941774
 30
0.0
 10
203.1712051344888
 20
135.2011353329355
 30
0.0
 10
203.1567778307909
 20
135.2027507297173
 30
0.0
 10
203.1421570634947
 20
135.2043877882373
 30
0.0
 10
203.1274206336756
 20
135.2052041175574
 30
0.0
 10
203.1127079132975
 20
135.2052041242628
 30
0.0
  0
SPLINE
  5
CC
330
1F
100
AcDbEntity
  8
0
  6
Continuous
 62
     7
370
    15
100
AcDbSpline
210
0.0
220
0.0
230
1.0
 70
     8
 71
     3
 72
    14
 73
    10
 74
     0
 42
0.00000001
 43
0.00000001
 40
0.0000300743422248
 40
0.0000300743422248
 40
0.0000300743422248
 40
0.0000300743422248
 40
0.000083392869315
 40
0.000083392869315
 40
0.000083392869315
 40
0.0001267689099525
 40
0.0001267689099525
 40
0.0001267689099525
 40
0.0001707220982893
 40
0.0001707220982893
 40
0.0001707220982893
 40
0.0001707220982893
 10
203.250724450665
 20
130.9358059277804
 30
0.0
 10
203.2341150402084
 20
130.929596225505
 30
0.0
 10
203.2170390045653
 20
130.9244882835448
 30
0.0
 10
203.1997106186795
 20
130.9205677339534
 30
0.0
 10
203.1855658582858
 20
130.9173674800493
 30
0.0
 10
203.1712051344888
 20
130.9149471412912
 30
0.0
 10
203.1567778307909
 20
130.9133317445094
 30
0.0
 10
203.1421570634947
 20
130.9116946859894
 30
0.0
 10
203.1274206336756
 20
130.9108783566693
 30
0.0
 10
203.1127079132975
 20
130.9108783499639
 30
0.0
  0
SPLINE
  5
CD
330
1F
100
AcDbEntity
  8
0
  6
Continuous
 62
     7
370
    15
100
AcDbSpline
210
0.0
220
0.0
230
1.0
 70
     8
 71
     3
 72
    14
 73
    10
 74
     0
 42
0.00000001
 43
0.00000001
 40
0.0000000000032376
 40
0.0000000000032376
 40
0.0000000000032376
 40
0.0000000000032376
 40
0.0000833363098708
 40
0.0000833363098708
 40
0.0000833363098708
 40
0.0001267105655088
 40
0.0001267105655088
 40
0.0001267105655088
 40
0.000140650382904
 40
0.000140650382904
 40
0.000140650382904
 40
0.000140650382904
 10
211.3668443500401
 20
135.2052041242628
 30
0.0
 10
211.339065580084
 20
135.2052041165135
 30
0.0
 10
211.3111341514956
 20
135.2022315014332
 30
0.0
 10
211.2839909020458
 20
135.1964057137621
 30
0.0
 10
211.2698052280278
 20
135.1933610258019
 30
0.0
 10
211.2557680487843
 20
135.1895281663995
 30
0.0
 10
211.2420205997837
 20
135.1849433052084
 30
0.0
 10
211.2375995086545
 20
135.1834688433545
 30
0.0
 10
211.2332053881547
 20
135.1819158455773
 30
0.0
 10
211.2288434871496
 20
135.1802861029648
 30
0.0
  0
SPLINE
  5
CE
330
1F
100
AcDbEntity
  8
0
  6
Continuous
 62
     7
370
    15
100
AcDbSpline
210
0.0
220
0.0
230
1.0
 70
     8
 71
     3
 72
    14
 73
    10
 74
     0
 42
0.00000001
 43
0.00000001
 40
0.0000000000032376
 40
0.0000000000032376
 40
0.0000000000032376
 40
0.0000000000032376
 40
0.0000833363098708
 40
0.0000833363098708
 40
0.0000833363098708
 40
0.0001267105655088
 40
0.0001267105655088
 40
0.0001267105655088
 40
0.000140650382904
 40
0.000140650382904
 40
0.000140650382904
 40
0.000140650382904
 10
211.3668443500401
 20
130.9108783499639
 30
0.0
 10
211.339065580084
 20
130.9108783577132
 30
0.0
 10
211.3111341514956
 20
130.9138509727935
 30
0.0
 10
211.2839909020458
 20
130.9196767604646
 30
0.0
 10
211.2698052280278
 20
130.9227214484248
 30
0.0
 10
211.2557680487843
 20
130.9265543078272
 30
0.0
 10
211.2420205997837
 20
130.9311391690183
 30
0.0
 10
211.2375995086545
 20
130.9326136308722
 30
0.0
 10
211.2332053881547
 20
130.9341666286494
 30
0.0
 10
211.2288434871496
 20
130.9357963712619
 30
0.0
  0
LINE
  5
CF
330
1F
100
AcDbEntity
  8
0
  6
Continuous
 62
     7
370
    15
100
AcDbLine
 10
218.0821925671
 20
135.1604577115
 30
0.0
 11
218.0649929018
 21
135.1699721029
 31
0.0
  0
LINE
  5
D0
330
1F
100
AcDbEntity
  8
0
  6
Continuous
 62
     7
370
    15
100
AcDbLine
 10
196.3973596962
 20
130.9556247627
 30
0.0
 11
196.4145593615
 21
130.9461103713
 31
0.0
  0
LINE
  5
D1
330
1F
100
AcDbEntity
  8
0
  6
Continuous
 62
     7
370
    15
100
AcDbLine
 10
203.3321920121
 20
135.1604577115
 30
0.0
 11
203.3149932781
 21
135.1699721029
 31
0.0
  0
LINE
  5
D2
330
1F
100
AcDbEntity
  8
0
  6
Continuous
 62
     7
370
    15
100
AcDbLine
 10
188.5821923883
 20
135.1604577115
 30
0.0
 11
188.564992723
 21
135.1699721029
 31
0.0
  0
LINE
  5
D3
330
1F
100
AcDbEntity
  8
0
  6
Continuous
 62
     7
370
    15
100
AcDbLine
 10
225.897359875
 20
130.9556247627
 30
0.0
 11
225.9145595403
 21
130.9461103713
 31
0.0
  0
LINE
  5
D4
330
1F
100
AcDbEntity
  8
0
  6
Continuous
 62
     7
370
    15
100
AcDbLine
 10
211.1473602513
 20
130.9556247627
 30
0.0
 11
211.1645589852
 21
130.9461103713
 31
0.0
  0
LINE
  5
D5
330
1F
100
AcDbEntity
  8
0
  6
Continuous
 62
     7
370
    15
100
AcDbLine
 10
218.0274149673
 20
135.1698745469
 30
0.0
 11
218.0690432237
 21
135.166486861
 31
0.0
  0
SPLINE
  5
D6
330
1F
100
AcDbEntity
  8
0
  6
Continuous
 62
     7
370
    15
100
AcDbSpline
210
0.0
220
0.0
230
1.0
 70
     8
 71
     3
 72
    14
 73
    10
 74
     0
 42
0.00000001
 43
0.00000001
 40
0.0
 40
0.0
 40
0.0
 40
0.0
 40
0.0000076296961058
 40
0.0000076296961058
 40
0.0000076296961058
 40
0.0000203565208478
 40
0.0000203565208478
 40
0.0000203565208478
 40
0.0000357521005162
 40
0.0000357521005162
 40
0.0000357521005162
 40
0.0000357521005162
 10
218.000724450665
 20
135.1802765464463
 30
0.0
 10
218.0030994839334
 20
135.1793886010536
 30
0.0
 10
218.0054465579151
 20
135.1785057023027
 30
0.0
 10
218.0076052792007
 20
135.1776860907188
 30
0.0
 10
218.0112047929319
 20
135.1763194468773
 30
0.0
 10
218.0144498750275
 20
135.1750655333808
 30
0.0
 10
218.0174224588627
 20
135.1738963130304
 30
0.0
 10
218.0210328213417
 20
135.1724762322129
 30
0.0
 10
218.0243132320802
 20
135.171153674657
 30
0.0
 10
218.0274148653154
 20
135.1698745689532
 30
0.0
  0
LINE
  5
D7
330
1F
100
AcDbEntity
  8
0
  6
Continuous
 62
     7
370
    15
100
AcDbLine
 10
218.0274149673
 20
130.9462079274
 30
0.0
 11
218.069018078
 21
130.9495937506
 31
0.0
  0
SPLINE
  5
D8
330
1F
100
AcDbEntity
  8
0
  6
Continuous
 62
     7
370
    15
100
AcDbSpline
210
0.0
220
0.0
230
1.0
 70
     8
 71
     3
 72
    14
 73
    10
 74
     0
 42
0.00000001
 43
0.00000001
 40
0.0
 40
0.0
 40
0.0
 40
0.0
 40
0.0000076296961058
 40
0.0000076296961058
 40
0.0000076296961058
 40
0.0000203565208478
 40
0.0000203565208478
 40
0.0000203565208478
 40
0.0000357521005162
 40
0.0000357521005162
 40
0.0000357521005162
 40
0.0000357521005162
 10
218.000724450665
 20
130.9358059277804
 30
0.0
 10
218.0030994839334
 20
130.9366938731731
 30
0.0
 10
218.0054465579151
 20
130.937576771924
 30
0.0
 10
218.0076052792007
 20
130.9383963835079
 30
0.0
 10
218.0112047929319
 20
130.9397630273494
 30
0.0
 10
218.0144498750275
 20
130.9410169408459
 30
0.0
 10
218.0174224588627
 20
130.9421861611963
 30
0.0
 10
218.0210328213417
 20
130.9436062420138
 30
0.0
 10
218.0243132320802
 20
130.9449287995697
 30
0.0
 10
218.0274148653154
 20
130.9462079052735
 30
0.0
  0
SPLINE
  5
D9
330
1F
100
AcDbEntity
  8
0
  6
Continuous
 62
     7
370
    15
100
AcDbSpline
210
0.0
220
0.0
230
1.0
 70
     8
 71
     3
 72
    14
 73
    10
 74
     0
 42
0.00000001
 43
0.00000001
 40
0.0000000000000015
 40
0.0000000000000015
 40
0.0000000000000015
 40
0.0000000000000015
 40
0.0000157575563992
 40
0.0000157575563992
 40
0.0000157575563992
 40
0.0000284357236063
 40
0.0000284357236063
 40
0.0000284357236063
 40
0.0000360669160866
 40
0.0000360669160866
 40
0.0000360669160866
 40
0.0000360669160866
 10
225.9521981910055
 20
135.1698821416134
 30
0.0
 10
225.9553115774919
 20
135.1711731305394
 30
0.0
 10
225.9586158291773
 20
135.1725104205466
 30
0.0
 10
225.962274185603
 20
135.1739521112985
 30
0.0
 10
225.965205935261
 20
135.1751074597329
 30
0.0
 10
225.9684155391916
 20
135.1763490729567
 30
0.0
 10
225.9719845667789
 20
135.1777044749111
 30
0.0
 10
225.9741334637229
 20
135.1785205568959
 30
0.0
 10
225.9764757064693
 20
135.1794014260619
 30
0.0
 10
225.9788434871498
 20
135.1802861029649
 30
0.0
  0
SPLINE
  5
DA
330
1F
100
AcDbEntity
  8
0
  6
Continuous
 62
     7
370
    15
100
AcDbSpline
210
0.0
220
0.0
230
1.0
 70
     8
 71
     3
 72
     9
 73
     5
 74
     0
 42
0.00000001
 43
0.00000001
 40
0.0
 40
0.0
 40
0.0
 40
0.0
 40
0.2275844464402773
 40
1.0
 40
1.0
 40
1.0
 40
1.0
 10
225.9109329702051
 20
135.1666463499938
 30
0.0
 10
225.915597866294
 20
135.1668634265055
 30
0.0
 10
225.9360952955421
 20
135.1678172549199
 30
0.0
 10
225.9451804760839
 20
135.1689823176815
 30
0.0
 10
225.9521980108412
 20
135.1698822302793
 30
0.0
  0
SPLINE
  5
DB
330
1F
100
AcDbEntity
  8
0
  6
Continuous
 62
     7
370
    15
100
AcDbSpline
210
0.0
220
0.0
230
1.0
 70
     8
 71
     3
 72
     9
 73
     5
 74
     0
 42
0.00000001
 43
0.00000001
 40
0.0
 40
0.0
 40
0.0
 40
0.0
 40
0.2279314241741581
 40
1.0
 40
1.0
 40
1.0
 40
1.0
 10
225.910906893173
 20
130.9494372883861
 30
0.0
 10
225.9155811568146
 20
130.9492198420452
 30
0.0
 10
225.9360884811493
 20
130.9482658430884
 30
0.0
 10
225.945179286049
 20
130.9471002001956
 30
0.0
 10
225.9521980108412
 20
130.9462002439474
 30
0.0
  0
SPLINE
  5
DC
330
1F
100
AcDbEntity
  8
0
  6
Continuous
 62
     7
370
    15
100
AcDbSpline
210
0.0
220
0.0
230
1.0
 70
     8
 71
     3
 72
    14
 73
    10
 74
     0
 42
0.00000001
 43
0.00000001
 40
0.0000000000000015
 40
0.0000000000000015
 40
0.0000000000000015
 40
0.0000000000000015
 40
0.0000157575563992
 40
0.0000157575563992
 40
0.0000157575563992
 40
0.0000284357236063
 40
0.0000284357236063
 40
0.0000284357236063
 40
0.0000360669160866
 40
0.0000360669160866
 40
0.0000360669160866
 40
0.0000360669160866
 10
225.9521981910055
 20
130.9462003326133
 30
0.0
 10
225.9553115774919
 20
130.9449093436872
 30
0.0
 10
225.9586158291773
 20
130.9435720536801
 30
0.0
 10
225.962274185603
 20
130.9421303629281
 30
0.0
 10
225.965205935261
 20
130.9409750144937
 30
0.0
 10
225.9684155391916
 20
130.93973340127
 30
0.0
 10
225.9719845667789
 20
130.9383779993156
 30
0.0
 10
225.9741334637229
 20
130.9375619173308
 30
0.0
 10
225.9764757064693
 20
130.9366810481648
 30
0.0
 10
225.9788434871498
 20
130.9357963712618
 30
0.0
  0
SPLINE
  5
DD
330
1F
100
AcDbEntity
  8
0
  6
Continuous
 62
     7
370
    15
100
AcDbSpline
210
0.0
220
0.0
230
1.0
 70
     8
 71
     3
 72
     9
 73
     5
 74
     0
 42
0.00000001
 43
0.00000001
 40
0.0
 40
0.0
 40
0.0
 40
0.0
 40
0.227929025000956
 40
1.0
 40
1.0
 40
1.0
 40
1.0
 10
211.1609072694273
 20
130.9494372883861
 30
0.0
 10
211.1655813571155
 20
130.9492198416131
 30
0.0
 10
211.1860881253435
 20
130.9482658307189
 30
0.0
 10
211.1951793310454
 20
130.9471001963844
 30
0.0
 10
211.2021983870955
 20
130.9462002439474
 30
0.0
  0
SPLINE
  5
DE
330
1F
100
AcDbEntity
  8
0
  6
Continuous
 62
     7
370
    15
100
AcDbSpline
210
0.0
220
0.0
230
1.0
 70
     8
 71
     3
 72
    14
 73
    10
 74
     0
 42
0.00000001
 43
0.00000001
 40
0.0000000000000015
 40
0.0000000000000015
 40
0.0000000000000015
 40
0.0000000000000015
 40
0.0000157575563991
 40
0.0000157575563991
 40
0.0000157575563991
 40
0.0000284357236064
 40
0.0000284357236064
 40
0.0000284357236064
 40
0.0000360669160867
 40
0.0000360669160867
 40
0.0000360669160867
 40
0.0000360669160867
 10
211.2021981910055
 20
130.9462003326133
 30
0.0
 10
211.2053115774919
 20
130.9449093436873
 30
0.0
 10
211.2086158291772
 20
130.9435720536801
 30
0.0
 10
211.2122741856028
 20
130.9421303629282
 30
0.0
 10
211.2152059352609
 20
130.9409750144938
 30
0.0
 10
211.2184155391915
 20
130.93973340127
 30
0.0
 10
211.2219845667789
 20
130.9383779993156
 30
0.0
 10
211.2241334637228
 20
130.9375619173307
 30
0.0
 10
211.2264757064693
 20
130.9366810481648
 30
0.0
 10
211.2288434871498
 20
130.9357963712618
 30
0.0
  0
LINE
  5
DF
330
1F
100
AcDbEntity
  8
0
  6
Continuous
 62
     7
370
    15
100
AcDbLine
 10
188.5273542525
 20
130.9462002439
 30
0.0
 11
188.5690290751
 21
130.9495979415
 31
0.0
  0
SPLINE
  5
E0
330
1F
100
AcDbEntity
  8
0
  6
Continuous
 62
     7
370
    15
100
AcDbSpline
210
0.0
220
0.0
230
1.0
 70
     8
 71
     3
 72
    14
 73
    10
 74
     0
 42
0.00000001
 43
0.00000001
 40
0.0
 40
0.0
 40
0.0
 40
0.0
 40
0.0000074012675437
 40
0.0000074012675437
 40
0.0000074012675437
 40
0.0000195744116443
 40
0.0000195744116443
 40
0.0000195744116443
 40
0.0000359478435443
 40
0.0000359478435443
 40
0.0000359478435443
 40
0.0000359478435443
 10
188.5007087761879
 20
130.9357963712619
 30
0.0
 10
188.5030136765443
 20
130.9366575541094
 30
0.0
 10
188.5052948607114
 20
130.9375152861119
 30
0.0
 10
188.5073938729826
 20
130.9383120041051
 30
0.0
 10
188.5108447019297
 20
130.9396218285168
 30
0.0
 10
188.5139615903372
 20
130.9408259246493
 30
0.0
 10
188.5168115591042
 20
130.9419467082636
 30
0.0
 10
188.5206578943198
 20
130.9434593246595
 30
0.0
 10
188.5241094380381
 20
130.9448549208054
 30
0.0
 10
188.5273540723367
 20
130.9462003326156
 30
0.0
  0
LINE
  5
E1
330
1F
100
AcDbEntity
  8
0
  6
Continuous
 62
     7
370
    15
100
AcDbLine
 10
188.5273542525
 20
135.1698822303
 30
0.0
 11
188.5690532895
 21
135.1664824372
 31
0.0
  0
SPLINE
  5
E2
330
1F
100
AcDbEntity
  8
0
  6
Continuous
 62
     7
370
    15
100
AcDbSpline
210
0.0
220
0.0
230
1.0
 70
     8
 71
     3
 72
    14
 73
    10
 74
     0
 42
0.00000001
 43
0.00000001
 40
0.0
 40
0.0
 40
0.0
 40
0.0
 40
0.0000074012675437
 40
0.0000074012675437
 40
0.0000074012675437
 40
0.0000195744116443
 40
0.0000195744116443
 40
0.0000195744116443
 40
0.0000359478435443
 40
0.0000359478435443
 40
0.0000359478435443
 40
0.0000359478435443
 10
188.5007087761879
 20
135.1802861029648
 30
0.0
 10
188.5030136765443
 20
135.1794249201172
 30
0.0
 10
188.5052948607114
 20
135.1785671881148
 30
0.0
 10
188.5073938729826
 20
135.1777704701216
 30
0.0
 10
188.5108447019297
 20
135.1764606457099
 30
0.0
 10
188.5139615903372
 20
135.1752565495774
 30
0.0
 10
188.5168115591042
 20
135.1741357659631
 30
0.0
 10
188.5206578943198
 20
135.1726231495672
 30
0.0
 10
188.5241094380381
 20
135.1712275534213
 30
0.0
 10
188.5273540723367
 20
135.1698821416111
 30
0.0
  0
SPLINE
  5
E3
330
1F
100
AcDbEntity
  8
0
  6
Continuous
 62
     7
370
    15
100
AcDbSpline
210
0.0
220
0.0
230
1.0
 70
     8
 71
     3
 72
    14
 73
    10
 74
     0
 42
0.00000001
 43
0.00000001
 40
0.0000000000000015
 40
0.0000000000000015
 40
0.0000000000000015
 40
0.0000000000000015
 40
0.0000157575563991
 40
0.0000157575563991
 40
0.0000157575563991
 40
0.0000284357236064
 40
0.0000284357236064
 40
0.0000284357236064
 40
0.0000360669160867
 40
0.0000360669160867
 40
0.0000360669160867
 40
0.0000360669160867
 10
211.2021981910055
 20
135.1698821416134
 30
0.0
 10
211.2053115774919
 20
135.1711731305394
 30
0.0
 10
211.2086158291772
 20
135.1725104205466
 30
0.0
 10
211.2122741856028
 20
135.1739521112985
 30
0.0
 10
211.2152059352609
 20
135.1751074597329
 30
0.0
 10
211.2184155391915
 20
135.1763490729567
 30
0.0
 10
211.2219845667789
 20
135.1777044749111
 30
0.0
 10
211.2241334637228
 20
135.178520556896
 30
0.0
 10
211.2264757064693
 20
135.1794014260619
 30
0.0
 10
211.2288434871498
 20
135.1802861029649
 30
0.0
  0
SPLINE
  5
E4
330
1F
100
AcDbEntity
  8
0
  6
Continuous
 62
     7
370
    15
100
AcDbSpline
210
0.0
220
0.0
230
1.0
 70
     8
 71
     3
 72
     9
 73
     5
 74
     0
 42
0.00000001
 43
0.00000001
 40
0.0
 40
0.0
 40
0.0
 40
0.0
 40
0.2275800121371817
 40
1.0
 40
1.0
 40
1.0
 40
1.0
 10
211.1609338121207
 20
135.1666463499938
 30
0.0
 10
211.165598361255
 20
135.1668634273021
 30
0.0
 10
211.1860946653483
 20
135.1678172778018
 30
0.0
 10
211.1951803909988
 20
135.1689823247386
 30
0.0
 10
211.2021983870955
 20
135.1698822302793
 30
0.0
  0
SPLINE
  5
E5
330
1F
100
AcDbEntity
  8
0
  6
Continuous
 62
     7
370
    15
100
AcDbSpline
210
0.0
220
0.0
230
1.0
 70
     8
 71
     3
 72
    14
 73
    10
 74
     0
 42
0.00000001
 43
0.00000001
 40
0.0000000000000013
 40
0.0000000000000013
 40
0.0000000000000013
 40
0.0000000000000013
 40
0.0000159806824863
 40
0.0000159806824863
 40
0.0000159806824863
 40
0.0000283895826466
 40
0.0000283895826466
 40
0.0000283895826466
 40
0.0000358723744455
 40
0.0000358723744455
 40
0.0000358723744455
 40
0.0000358723744455
 10
196.4521373980273
 20
135.1698745689557
 30
0.0
 10
196.4553452518376
 20
135.1711974797562
 30
0.0
 10
196.4587440749734
 20
135.1725667993223
 30
0.0
 10
196.4625033031284
 20
135.1740431071829
 30
0.0
 10
196.4654118625645
 20
135.1751853440947
 30
0.0
 10
196.4685849644526
 20
135.1764101630399
 30
0.0
 10
196.4720931174079
 20
135.1777415621804
 30
0.0
 10
196.4742097349641
 20
135.1785448517835
 30
0.0
 10
196.4765056057682
 20
135.1794083510618
 30
0.0
 10
196.4788278126728
 20
135.1802765464464
 30
0.0
  0
SPLINE
  5
E6
330
1F
100
AcDbEntity
  8
0
  6
Continuous
 62
     7
370
    15
100
AcDbSpline
210
0.0
220
0.0
230
1.0
 70
     8
 71
     3
 72
     9
 73
     5
 74
     0
 42
0.00000001
 43
0.00000001
 40
0.0
 40
0.0
 40
0.0
 40
0.0
 40
0.2280816315002129
 40
1.0
 40
1.0
 40
1.0
 40
1.0
 10
196.4109337227137
 20
135.1666463499938
 30
0.0
 10
196.4155985001803
 20
135.1668634232566
 30
0.0
 10
196.4360507279018
 20
135.1678151582181
 30
0.0
 10
196.4451293448652
 20
135.1689773949705
 30
0.0
 10
196.4521372960599
 20
135.1698745468681
 30
0.0
  0
SPLINE
  5
E7
330
1F
100
AcDbEntity
  8
0
  6
Continuous
 62
     7
370
    15
100
AcDbSpline
210
0.0
220
0.0
230
1.0
 70
     8
 71
     3
 72
     9
 73
     5
 74
     0
 42
0.00000001
 43
0.00000001
 40
0.0
 40
0.0
 40
0.0
 40
0.0
 40
0.2284332210788613
 40
1.0
 40
1.0
 40
1.0
 40
1.0
 10
196.4109067143591
 20
130.9494372883861
 30
0.0
 10
196.4155812020743
 20
130.9492198460485
 30
0.0
 10
196.4360444590962
 20
130.9482679602565
 30
0.0
 10
196.4451284163905
 20
130.9471051291838
 30
0.0
 10
196.4521372960599
 20
130.9462079273586
 30
0.0
  0
SPLINE
  5
E8
330
1F
100
AcDbEntity
  8
0
  6
Continuous
 62
     7
370
    15
100
AcDbSpline
210
0.0
220
0.0
230
1.0
 70
     8
 71
     3
 72
    14
 73
    10
 74
     0
 42
0.00000001
 43
0.00000001
 40
0.0000000000000013
 40
0.0000000000000013
 40
0.0000000000000013
 40
0.0000000000000013
 40
0.0000159806824863
 40
0.0000159806824863
 40
0.0000159806824863
 40
0.0000283895826466
 40
0.0000283895826466
 40
0.0000283895826466
 40
0.0000358723744455
 40
0.0000358723744455
 40
0.0000358723744455
 40
0.0000358723744455
 10
196.4521373980273
 20
130.9462079052709
 30
0.0
 10
196.4553452518376
 20
130.9448849944705
 30
0.0
 10
196.4587440749734
 20
130.9435156749043
 30
0.0
 10
196.4625033031284
 20
130.9420393670438
 30
0.0
 10
196.4654118625645
 20
130.940897130132
 30
0.0
 10
196.4685849644526
 20
130.9396723111868
 30
0.0
 10
196.4720931174079
 20
130.9383409120463
 30
0.0
 10
196.4742097349641
 20
130.9375376224432
 30
0.0
 10
196.4765056057682
 20
130.9366741231649
 30
0.0
 10
196.4788278126728
 20
130.9358059277803
 30
0.0
  0
LINE
  5
E9
330
1F
100
AcDbEntity
  8
0
  6
Continuous
 62
     7
370
    15
100
AcDbLine
 10
203.2774148779
 20
130.9462079274
 30
0.0
 11
203.3190184543
 21
130.9495937506
 31
0.0
  0
SPLINE
  5
EA
330
1F
100
AcDbEntity
  8
0
  6
Continuous
 62
     7
370
    15
100
AcDbSpline
210
0.0
220
0.0
230
1.0
 70
     8
 71
     3
 72
    14
 73
    10
 74
     0
 42
0.00000001
 43
0.00000001
 40
0.0
 40
0.0
 40
0.0
 40
0.0
 40
0.0000076296961058
 40
0.0000076296961058
 40
0.0000076296961058
 40
0.0000203565208478
 40
0.0000203565208478
 40
0.0000203565208478
 40
0.000035752100516
 40
0.000035752100516
 40
0.000035752100516
 40
0.000035752100516
 10
203.250724450665
 20
130.9358059277804
 30
0.0
 10
203.2530994839335
 20
130.9366938731731
 30
0.0
 10
203.2554465579152
 20
130.937576771924
 30
0.0
 10
203.2576052792008
 20
130.9383963835079
 30
0.0
 10
203.261204792932
 20
130.9397630273494
 30
0.0
 10
203.2644498750275
 20
130.941016940846
 30
0.0
 10
203.2674224588628
 20
130.9421861611964
 30
0.0
 10
203.2710328213418
 20
130.9436062420138
 30
0.0
 10
203.2743132320802
 20
130.9449287995697
 30
0.0
 10
203.2774148653154
 20
130.9462079052735
 30
0.0
  0
LINE
  5
EB
330
1F
100
AcDbEntity
  8
0
  6
Continuous
 62
     7
370
    15
100
AcDbLine
 10
203.2774148779
 20
135.1698745469
 30
0.0
 11
203.3190431343
 21
135.166486861
 31
0.0
  0
SPLINE
  5
EC
330
1F
100
AcDbEntity
  8
0
  6
Continuous
 62
     7
370
    15
100
AcDbSpline
210
0.0
220
0.0
230
1.0
 70
     8
 71
     3
 72
    14
 73
    10
 74
     0
 42
0.00000001
 43
0.00000001
 40
0.0
 40
0.0
 40
0.0
 40
0.0
 40
0.0000076296961058
 40
0.0000076296961058
 40
0.0000076296961058
 40
0.0000203565208478
 40
0.0000203565208478
 40
0.0000203565208478
 40
0.000035752100516
 40
0.000035752100516
 40
0.000035752100516
 40
0.000035752100516
 10
203.250724450665
 20
135.1802765464463
 30
0.0
 10
203.2530994839335
 20
135.1793886010535
 30
0.0
 10
203.2554465579152
 20
135.1785057023027
 30
0.0
 10
203.2576052792008
 20
135.1776860907188
 30
0.0
 10
203.261204792932
 20
135.1763194468772
 30
0.0
 10
203.2644498750275
 20
135.1750655333807
 30
0.0
 10
203.2674224588628
 20
135.1738963130303
 30
0.0
 10
203.2710328213418
 20
135.1724762322129
 30
0.0
 10
203.2743132320802
 20
135.171153674657
 30
0.0
 10
203.2774148653154
 20
135.1698745689532
 30
0.0
  0
LINE
  5
ED
330
1F
100
AcDbEntity
  8
0
  6
Continuous
 62
     7
370
    15
100
AcDbLine
 10
226.2422398003
 20
133.0886743756
 30
0.0
 11
226.2422323497
 21
133.0886725421
 31
0.0
  0
LINE
  5
EE
330
1F
100
AcDbEntity
  8
0
  6
Continuous
 62
     7
370
    15
100
AcDbLine
 10
226.2422398003
 20
133.0274080986
 30
0.0
 11
226.2422323497
 21
133.0274099321
 31
0.0
  0
ENDSEC
  0
SECTION
  2
OBJECTS
  0
DICTIONARY
  5
C
330
0
100
AcDbDictionary
281
     1
  3
ACAD_GROUP
350
D
  3
ACAD_LAYOUT
350
1A
  3
ACAD_MLEADERSTYLE
350
F1
  3
ACAD_MLINESTYLE
350
17
  3
ACAD_PLOTSETTINGS
350
19
  3
ACAD_PLOTSTYLENAME
350
E
  3
ACAD_VISUALSTYLE
350
2A
  3
AcDbVariableDictionary
350
EF
  0
DICTIONARY
  5
D
102
{ACAD_REACTORS
330
C
102
}
330
C
100
AcDbDictionary
281
     1
  0
DICTIONARY
  5
1A
102
{ACAD_REACTORS
330
C
102
}
330
C
100
AcDbDictionary
281
     1
  3
Layout1
350
1E
  3
Layout2
350
26
  3
Model
350
22
  0
DICTIONARY
  5
F1
102
{ACAD_REACTORS
330
C
102
}
330
C
100
AcDbDictionary
281
     1
  0
DICTIONARY
  5
17
102
{ACAD_REACTORS
330
C
102
}
330
C
100
AcDbDictionary
281
     1
  3
Standard
350
18
  0
DICTIONARY
  5
19
102
{ACAD_REACTORS
330
C
102
}
330
C
100
AcDbDictionary
281
     1
  0
ACDBDICTIONARYWDFLT
  5
E
102
{ACAD_REACTORS
330
C
102
}
330
C
100
AcDbDictionary
281
     1
  3
Normal
350
F
100
AcDbDictionaryWithDefault
340
F
  0
DICTIONARY
  5
2A
102
{ACAD_REACTORS
330
C
102
}
330
C
100
AcDbDictionary
281
     1
  3
2dWireframe
350
2F
  3
3D Hidden
350
31
  3
3dWireframe
350
30
  3
Basic
350
32
  3
Brighten
350
36
  3
ColorChange
350
3A
  3
Conceptual
350
34
  3
Dim
350
35
  3
Facepattern
350
39
  3
Flat
350
2B
  3
FlatWithEdges
350
2C
  3
Gouraud
350
2D
  3
GouraudWithEdges
350
2E
  3
Linepattern
350
38
  3
Realistic
350
33
  3
Thicken
350
37
  0
DICTIONARY
  5
EF
102
{ACAD_REACTORS
330
C
102
}
330
C
100
AcDbDictionary
281
     1
  3
DIMASSOC
350
F4
  3
HIDETEXT
350
F5
  3
PSOLHEIGHT
350
F3
  3
PSOLWIDTH
350
F2
  0
LAYOUT
  5
1E
102
{ACAD_REACTORS
330
1A
102
}
330
1A
100
AcDbPlotSettings
  1

  2
none_device
  4

  6

 40
0.0
 41
0.0
 42
0.0
 43
0.0
 44
0.0
 45
0.0
 46
0.0
 47
0.0
 48
0.0
 49
0.0
140
0.0
141
0.0
142
1.0
143
1.0
 70
   688
 72
     0
 73
     0
 74
     5
  7

 75
    16
147
1.0
148
0.0
149
0.0
100
AcDbLayout
  1
Layout1
 70
     1
 71
     1
 10
0.0
 20
0.0
 11
420.0
 21
297.0
 12
0.0
 22
0.0
 32
0.0
 14
1.0000000000E+20
 24
1.0000000000E+20
 34
1.0000000000E+20
 15
-1.0000000000E+20
 25
-1.0000000000E+20
 35
-1.0000000000E+20
146
0.0
 13
0.0
 23
0.0
 33
0.0
 16
1.0
 26
0.0
 36
0.0
 17
0.0
 27
1.0
 37
0.0
 76
     0
330
1B
  0
LAYOUT
  5
26
102
{ACAD_REACTORS
330
1A
102
}
330
1A
100
AcDbPlotSettings
  1

  2
none_device
  4

  6

 40
0.0
 41
0.0
 42
0.0
 43
0.0
 44
0.0
 45
0.0
 46
0.0
 47
0.0
 48
0.0
 49
0.0
140
0.0
141
0.0
142
1.0
143
1.0
 70
   688
 72
     0
 73
     0
 74
     5
  7

 75
    16
147
1.0
148
0.0
149
0.0
100
AcDbLayout
  1
Layout2
 70
     1
 71
     2
 10
0.0
 20
0.0
 11
0.0
 21
0.0
 12
0.0
 22
0.0
 32
0.0
 14
0.0
 24
0.0
 34
0.0
 15
0.0
 25
0.0
 35
0.0
146
0.0
 13
0.0
 23
0.0
 33
0.0
 16
1.0
 26
0.0
 36
0.0
 17
0.0
 27
1.0
 37
0.0
 76
     0
330
23
  0
LAYOUT
  5
22
102
{ACAD_REACTORS
330
1A
102
}
330
1A
100
AcDbPlotSettings
  1

  2
none_device
  4

  6

 40
0.0
 41
0.0
 42
0.0
 43
0.0
 44
0.0
 45
0.0
 46
0.0
 47
0.0
 48
0.0
 49
0.0
140
0.0
141
0.0
142
1.0
143
1.0
 70
  1712
 72
     0
 73
     0
 74
     0
  7

 75
     0
147
1.0
148
0.0
149
0.0
100
AcDbLayout
  1
Model
 70
     1
 71
     0
 10
0.0
 20
0.0
 11
420.0
 21
297.0
 12
0.0
 22
0.0
 32
0.0
 14
0.0
 24
0.0
 34
0.0
 15
420.0
 25
297.0
 35
0.0
146
0.0
 13
0.0
 23
0.0
 33
0.0
 16
1.0
 26
0.0
 36
0.0
 17
0.0
 27
1.0
 37
0.0
 76
     0
330
1F
331
29
  0
MLINESTYLE
  5
18
102
{ACAD_REACTORS
330
17
102
}
330
17
100
AcDbMlineStyle
  2
Standard
 70
     0
  3

 62
   256
 51
90.0
 52
90.0
 71
     2
 49
0.5
 62
   256
  6
BYLAYER
 49
-0.5
 62
   256
  6
BYLAYER
  0
ACDBPLACEHOLDER
  5
F
102
{ACAD_REACTORS
330
E
102
}
330
E
  0
VISUALSTYLE
  5
2F
102
{ACAD_REACTORS
330
2A
102
}
330
2A
100
AcDbVisualStyle
  2
2dWireframe
 70
     4
 71
     0
 72
     2
 73
     0
 90
        0
 40
-0.6
 41
-30.0
 62
     5
 63
     7
 74
     1
 91
        4
 64
     7
 65
   257
 75
     1
175
     1
 42
1.0
 92
        0
 66
   257
 43
1.0
 76
     1
 77
     6
 78
     2
 67
     7
 79
     5
170
     0
171
     0
290
     0
174
     0
 93
        1
 44
0.0
173
     0
291
     0
 45
0.0
1001
ACAD
1000
AcDbSavedByObjectVersion
1070
     0
  0
VISUALSTYLE
  5
31
102
{ACAD_REACTORS
330
2A
102
}
330
2A
100
AcDbVisualStyle
  2
3D Hidden
 70
     6
 71
     1
 72
     2
 73
     2
 90
        0
 40
-0.6
 41
-30.0
 62
     5
 63
     7
 74
     2
 91
        2
 64
     7
 65
   257
 75
     2
175
     1
 42
40.0
 92
        0
 66
   257
 43
1.0
 76
     1
 77
     6
 78
     2
 67
     7
 79
     3
170
     0
171
     0
290
     0
174
     0
 93
        1
 44
0.0
173
     0
291
     0
 45
0.0
1001
ACAD
1000
AcDbSavedByObjectVersion
1070
     0
  0
VISUALSTYLE
  5
30
102
{ACAD_REACTORS
330
2A
102
}
330
2A
100
AcDbVisualStyle
  2
3dWireframe
 70
     5
 71
     0
 72
     2
 73
     0
 90
        0
 40
-0.6
 41
-30.0
 62
     5
 63
     7
 74
     1
 91
        4
 64
     7
 65
   257
 75
     1
175
     1
 42
1.0
 92
        0
 66
   257
 43
1.0
 76
     1
 77
     6
 78
     2
 67
     7
 79
     5
170
     0
171
     0
290
     0
174
     0
 93
        1
 44
0.0
173
     0
291
     0
 45
0.0
1001
ACAD
1000
AcDbSavedByObjectVersion
1070
     0
  0
VISUALSTYLE
  5
32
102
{ACAD_REACTORS
330
2A
102
}
330
2A
100
AcDbVisualStyle
  2
Basic
 70
     7
 71
     1
 72
     0
 73
     1
 90
        0
 40
-0.6
 41
-30.0
 62
     5
 63
     7
 74
     0
 91
        4
 64
     7
 65
   257
 75
     1
175
     1
 42
1.0
 92
        8
 66
     7
 43
1.0
 76
     1
 77
     6
 78
     2
 67
     7
 79
     5
170
     0
171
     0
290
     0
174
     0
 93
        1
 44
0.0
173
     0
291
     1
 45
0.0
1001
ACAD
1000
AcDbSavedByObjectVersion
1070
     0
  0
VISUALSTYLE
  5
36
102
{ACAD_REACTORS
330
2A
102
}
330
2A
100
AcDbVisualStyle
  2
Brighten
 70
    12
 71
     2
 72
     2
 73
     0
 90
        0
 40
-0.6
 41
-30.0
 62
     5
 63
     7
 74
     1
 91
        4
 64
     7
 65
   257
 75
     1
175
     1
 42
1.0
 92
        8
 66
     7
 43
1.0
 76
     1
 77
     6
 78
     2
 67
     7
 79
     5
170
     0
171
     0
290
     0
174
     0
 93
        1
 44
50.0
173
     0
291
     1
 45
0.0
1001
ACAD
1000
AcDbSavedByObjectVersion
1070
     0
  0
VISUALSTYLE
  5
3A
102
{ACAD_REACTORS
330
2A
102
}
330
2A
100
AcDbVisualStyle
  2
ColorChange
 70
    16
 71
     2
 72
     2
 73
     3
 90
        0
 40
-0.6
 41
-30.0
 62
     5
 63
     8
 74
     1
 91
        4
 64
     7
 65
   257
 75
     1
175
     1
 42
1.0
 92
        8
 66
     8
 43
1.0
 76
     1
 77
     6
 78
     2
 67
     7
 79
     5
170
     0
171
     0
290
     0
174
     0
 93
        1
 44
0.0
173
     0
291
     1
 45
0.0
1001
ACAD
1000
AcDbSavedByObjectVersion
1070
     0
  0
VISUALSTYLE
  5
34
102
{ACAD_REACTORS
330
2A
102
}
330
2A
100
AcDbVisualStyle
  2
Conceptual
 70
     9
 71
     3
 72
     2
 73
     0
 90
        0
 40
-0.6
 41
-30.0
 62
     5
 63
     7
 74
     2
 91
        2
 64
     7
 65
   257
 75
     1
175
     1
 42
40.0
 92
        8
 66
     7
 43
1.0
 76
     1
 77
     6
 78
     2
 67
     7
 79
     3
170
     0
171
     0
290
     0
174
     0
 93
        1
 44
0.0
173
     0
291
     0
 45
0.0
1001
ACAD
1000
AcDbSavedByObjectVersion
1070
     0
  0
VISUALSTYLE
  5
35
102
{ACAD_REACTORS
330
2A
102
}
330
2A
100
AcDbVisualStyle
  2
Dim
 70
    11
 71
     2
 72
     2
 73
     0
 90
        0
 40
-0.6
 41
-30.0
 62
     5
 63
     7
 74
     1
 91
        4
 64
     7
 65
   257
 75
     1
175
     1
 42
1.0
 92
        8
 66
     7
 43
1.0
 76
     1
 77
     6
 78
     2
 67
     7
 79
     5
170
     0
171
     0
290
     0
174
     0
 93
        1
 44
-50.0
173
     0
291
     1
 45
0.0
1001
ACAD
1000
AcDbSavedByObjectVersion
1070
     0
  0
VISUALSTYLE
  5
39
102
{ACAD_REACTORS
330
2A
102
}
330
2A
100
AcDbVisualStyle
  2
Facepattern
 70
    15
 71
     2
 72
     2
 73
     0
 90
        0
 40
-0.6
 41
-30.0
 62
     5
 63
     7
 74
     1
 91
        4
 64
     7
 65
   257
 75
     1
175
     1
 42
1.0
 92
        8
 66
     7
 43
1.0
 76
     1
 77
     6
 78
     2
 67
     7
 79
     5
170
     0
171
     0
290
     0
174
     0
 93
        1
 44
0.0
173
     0
291
     1
 45
0.0
1001
ACAD
1000
AcDbSavedByObjectVersion
1070
     0
  0
VISUALSTYLE
  5
2B
102
{ACAD_REACTORS
330
2A
102
}
330
2A
100
AcDbVisualStyle
  2
Flat
 70
     0
 71
     2
 72
     1
 73
     1
 90
        2
 40
-0.6
 41
30.0
 62
     5
 63
     7
 74
     0
 91
        4
 64
     7
 65
   257
 75
     1
175
     1
 42
1.0
 92
        8
 66
     7
 43
1.0
 76
     1
 77
     6
 78
     2
 67
     7
 79
     5
170
     0
171
     0
290
     0
174
     0
 93
       13
 44
0.0
173
     0
291
     1
 45
0.0
1001
ACAD
1000
AcDbSavedByObjectVersion
1070
     0
  0
VISUALSTYLE
  5
2C
102
{ACAD_REACTORS
330
2A
102
}
330
2A
100
AcDbVisualStyle
  2
FlatWithEdges
 70
     1
 71
     2
 72
     1
 73
     1
 90
        2
 40
-0.6
 41
30.0
 62
     5
 63
     7
 74
     1
 91
        4
 64
     7
 65
   257
 75
     1
175
     1
 42
1.0
 92
        0
 66
   257
 43
1.0
 76
     1
 77
     6
 78
     2
 67
     7
 79
     5
170
     0
171
     0
290
     0
174
     0
 93
       13
 44
0.0
173
     0
291
     1
 45
0.0
1001
ACAD
1000
AcDbSavedByObjectVersion
1070
     0
  0
VISUALSTYLE
  5
2D
102
{ACAD_REACTORS
330
2A
102
}
330
2A
100
AcDbVisualStyle
  2
Gouraud
 70
     2
 71
     2
 72
     2
 73
     1
 90
        2
 40
-0.6
 41
30.0
 62
     5
 63
     7
 74
     0
 91
        4
 64
     7
 65
   257
 75
     1
175
     1
 42
1.0
 92
        0
 66
     7
 43
1.0
 76
     1
 77
     6
 78
     2
 67
     7
 79
     5
170
     0
171
     0
290
     0
174
     0
 93
       13
 44
0.0
173
     0
291
     1
 45
0.0
1001
ACAD
1000
AcDbSavedByObjectVersion
1070
     0
  0
VISUALSTYLE
  5
2E
102
{ACAD_REACTORS
330
2A
102
}
330
2A
100
AcDbVisualStyle
  2
GouraudWithEdges
 70
     3
 71
     2
 72
     2
 73
     1
 90
        2
 40
-0.6
 41
30.0
 62
     5
 63
     7
 74
     1
 91
        4
 64
     7
 65
   257
 75
     1
175
     1
 42
1.0
 92
        0
 66
   257
 43
1.0
 76
     1
 77
     6
 78
     2
 67
     7
 79
     5
170
     0
171
     0
290
     0
174
     0
 93
       13
 44
0.0
173
     0
291
     1
 45
0.0
1001
ACAD
1000
AcDbSavedByObjectVersion
1070
     0
  0
VISUALSTYLE
  5
38
102
{ACAD_REACTORS
330
2A
102
}
330
2A
100
AcDbVisualStyle
  2
Linepattern
 70
    14
 71
     2
 72
     2
 73
     0
 90
        0
 40
-0.6
 41
-30.0
 62
     5
 63
     7
 74
     1
 91
        4
 64
     7
 65
   257
 75
     7
175
     7
 42
1.0
 92
        8
 66
     7
 43
1.0
 76
     1
 77
     6
 78
     2
 67
     7
 79
     5
170
     0
171
     0
290
     0
174
     0
 93
        1
 44
0.0
173
     0
291
     1
 45
0.0
1001
ACAD
1000
AcDbSavedByObjectVersion
1070
     0
  0
VISUALSTYLE
  5
33
102
{ACAD_REACTORS
330
2A
102
}
330
2A
100
AcDbVisualStyle
  2
Realistic
 70
     8
 71
     2
 72
     2
 73
     0
 90
        0
 40
-0.6
 41
-30.0
 62
     5
 63
     7
 74
     1
 91
        0
 64
     7
 65
   257
 75
     1
175
     1
 42
1.0
 92
        8
 66
     8
 43
1.0
 76
     1
 77
     6
 78
     2
 67
     7
 79
     5
170
     0
171
     0
290
     0
174
     0
 93
       13
 44
0.0
173
     0
291
     0
 45
0.0
1001
ACAD
1000
AcDbSavedByObjectVersion
1070
     0
  0
VISUALSTYLE
  5
37
102
{ACAD_REACTORS
330
2A
102
}
330
2A
100
AcDbVisualStyle
  2
Thicken
 70
    13
 71
     2
 72
     2
 73
     0
 90
        0
 40
-0.6
 41
-30.0
 62
     5
 63
     7
 74
     1
 91
        4
 64
     7
 65
   257
 75
     1
175
     1
 42
1.0
 92
       12
 66
     7
 43
1.0
 76
     1
 77
     6
 78
     2
 67
     7
 79
     5
170
     0
171
     0
290
     0
174
     0
 93
        1
 44
0.0
173
     0
291
     1
 45
0.0
1001
ACAD
1000
AcDbSavedByObjectVersion
1070
     0
  0
DICTIONARYVAR
  5
F4
102
{ACAD_REACTORS
330
EF
102
}
330
EF
100
DictionaryVariables
280
     0
  1
2
  0
DICTIONARYVAR
  5
F5
102
{ACAD_REACTORS
330
EF
102
}
330
EF
100
DictionaryVariables
280
     0
  1
1
  0
DICTIONARYVAR
  5
F3
102
{ACAD_REACTORS
330
EF
102
}
330
EF
100
DictionaryVariables
280
     0
  1
80.000000
  0
DICTIONARYVAR
  5
F2
102
{ACAD_REACTORS
330
EF
102
}
330
EF
100
DictionaryVariables
280
     0
  1
5.000000
  0
ENDSEC
  0
EOF
